Song name
# A B C D E F G H I J K L M N O P Q R S T U V W X Y Z

Rolling Stones - Street Fighting Man tab

i was looking through the other tabs, and they may be close but this one is right

E|--------------------------------------------------------------------|
B|4-4-4-4-4-5-5-5-5-5-5-5-x-4-4-4-4-4-4-5-5-5-5-5-5-5-5-x-4-4-4-4-4-5-|
G|4-4-4-4-4-4-4-4-4-4-4-4-x-4-4-4-4-4-4-4-4-4-4-4-4-4-4-x-4-4-4-4-4-4-|
D|4-4-4-4-4-6-6-6-6-6-6-6-x-4-4-4-4-4-4-6-6-6-6-6-6-6-6-x-4-4-4-4-4-6-|
A|--------------------------------------------------------------------|
E|--------------------------------------------------------------------|

E|-------------------------------------------|
B|(5)-4-5-4-5-4-5-4-5-4-5-4-5-4----------4-5-|
G|(4)-4-4-4-4-4-4-4-4-4-4-4-4-4--6-4-4---4-4-|
D|(6)-4-6-4-6-4-6-4-6-4-6-4-6-4-4---6----4-6-|
A|-------------------------------------------|
E|-------------------------------------------|

E|---------------------------------------------------------------------------|
B|(9)------------------------------------------------------------------------|
G|(9)-----9------9--------9--------9-----9-------9-------------------------9-|
D|(9)-----9------9--------9--------9-----9-------9-9---x-x---------9-(9)-9-9-|
A|(7)-9-9-7--9-9-7--9-9-9-7--9-9-9-7-9-9-7-9-9---7-9-9--------9--11------9-7-|
E|----7-7----7-7----7-7-7----7-7-7---7-7---7-7-----7-7-----/11-----------7---|
Tap to rate this tab
# A B C D E F G H I J K L M N O P Q R S T U V W X Y Z