Guitaretab - guitar tabs
Song name
# A B C D E F G H I J K L M N O P Q R S T U V W X Y Z

Rolling Stones - Sweet Virginia tab

Capo at fifth:

Intro:

Walk to A


                                                                                         
                                                     A             F#          E      E7
E ------------------------------2---2--0-0------------------|
B ----------------2--2--2-------2---2--0-0----------3-3-3-3-|
G --------------- 2--2--2-------3-----------1-1 1-1-1-1-1-1-|
D --------------- 2--2--2-------4-----------2-2 2-2-2-2-2-2-|
A ----------------0-------------4-----------2-2-2-2-2-2-2---|
E -0---2---4----0---------------x---------------------------|

E ----------------------------------------------------------|
B ----------------------------------------------------------|
G ----------------------------------------------------------|
D ----------------------------------------------------------|
A -----------0 --1--2--4--2--1--0---------------------------|
E --0--2---4-----------------------2--4--0------------------|
[ Tab from: http://www.guitaretab.com/r/rolling-stones/16438.html ]
     A             F#          E      E7
E -----------------2---2--0-0------------------|
B ---2--2--2-------2---2--0-0----------3-3-3-3-|
G -- 2--2--2-------3-----------1-1 1-1-1-1-1-1-|
D -- 2--2--2-------4-----------2-2 2-2-2-2-2-2-|
A -0---------------4-----------2-2-2-2-2-2-2---|
E -----------------x---------------------------|


E -----------------------|
B ----2----2---2---2-----|
G --0----0---0-- 0-------|
D 4----4---4---4---------|
A -----------------------|
E ------------------0----|

     A             F#          E      E7
E -----------------2---2--0-0------------------|
B ---2--2--2-------2---2--0-0----------3-3-3-3-|
G -- 2--2--2-------3-----------1-1 1-1-1-1-1-1-|
D -- 2--2--2-------4-----------2-2 2-2-2-2-2-2-|
A -0---------------4-----------2-2-2-2-2-2-2---|
E -----------------x---------------------------|

E7 again then,

         B
E ------------------------------|
B ------------------------------|
G --------------------1-1-1-1---|
D -----4-2---0h1------2-2-2-2---|
A -----4---4-----2----2-2-2-2---|
E ------------------------------|

E -----------------------|
B ----2----2---2---2-----|
G --0----0---0-- 0-------|
D 4----4---4---4---------|
A -----------------------|
E ------------------0----|

Repeat in entirety for every verse and chorus. This song is awesome and sounds real
played this way enjoy!!
Related for Sweet Virginia tab
Sweet Virginia chords by Rolling Stones