Guitaretab - guitar tabs
Song name
# A B C D E F G H I J K L M N O P Q R S T U V W X Y Z

Rolling Stones - Sympathy For The Devil tab

Hi,

Thanks a lot for using this tab,
this is my first one so it might not be perfect.
Please rate!


Sympathy For The Devil - Rolling Stones

  h-hammer on
  p-pull off
  b-bend
  s-slide
  r-release
  rr-let ring
  /-slide all the way down the neck
 ()-play these notes a bit muted

  Chords : Verse : E  D  A  E

           Chorus : B  B  E  D  A  E

 These are the chords during the whole song

  Solo :

  e|---12p10--------------------12p10-----------------|
  B|----------8h10p8------------------8h10p8----------|
  G|--------------------9----------------------9------|
  D|--------------------------------------------------|
  A|--------------------------------------------------|
  E|--------------------------------------------------|


  e|--------------------------10b12r------------------|
  B|---8h10--10b12r------8h10-------------------------|
  G|-9-----------------9------------------------------|
  D|--------------------------------------------------|
  A|--------------------------------------------------|
  E|--------------------------------------------------|


  e|--17b19--17--15-------|
  B|-----------------17---|
  G|----------------------|
  D|----------------------|
  A|----------------------|
  E|----------------------|


  e|--17p15------17----17p15---------15---------------|
  B|---------17---------------17p15------17-----------|
  G|--------------------------------------------------|
  D|--------------------------------------------------|
  A|--------------------------------------------------|
  E|--------------------------------------------------|


  e|------15h17--17b19--17--15h17p15------------------|
  B|--17------------------------------17--------------|
  G|--------------------------------------------------|
  D|--------------------------------------------------|
  A|--------------------------------------------------|
  E|--------------------------------------------------|

  e|------17b19--17b19--15h17--15---------------------|
  B|--17---------------------------17--17-17-17-17-17-|
  G|--------------------------------------------------|
  D|--------------------------------------------------|
  A|--------------------------------------------------|
  E|--------------------------------------------------|


  e|------15h17--17b19--17--15h17--15-----------------|
  B|--17----------------------------------------------|
  G|--------------------------------------------------|
  D|--------------------------------------------------|
  A|--------------------------------------------------|
  E|--------------------------------------------------|


  e|-------------15h17p15h17p15-----------------------|
  B|--17p15--17------------------17---17/-------------|
  G|--------------------------------------------------|
  D|--------------------------------------------------|
  A|--------------------------------------------------|
  E|--------------------------------------------------|


  later in the song :
[ Tab from: http://www.guitaretab.com/r/rolling-stones/16440.html ]
  e|------------------------------12p10---------------|
  B|--10b11--8------10b11--8-------------8h10p8-------|
  G|------------9--------------9-----------------9----|
  D|--------------------------------------------------|
  A|--------------------------------------------------|
  E|--------------------------------------------------|


  e|--------------------------------------------------|
  B|-----8h10--10b12--10--8h10p8----------------------|
  G|--9---------------------------9-------------------|
  D|--------------------------------------------------|
  A|--------------------------------------------------|
  E|--------------------------------------------------|


  e|--12--10--------12--10---------12--10--------------|
  B|----------8-------------8b-------------8b----------|
  G|-------------9--------------9--------------9--7--9-|
  D|---------------------------------------------------|
  A|---------------------------------------------------|
  E|---------------------------------------------------|


  e|--12p10------12--12rr---17b19--17--15h17--15------|
  B|---------12---------------------------------------|
  G|--------------------------------------------------|
  D|--------------------------------------------------|
  A|--------------------------------------------------|
  E|--------------------------------------------------|


  e|--------------------------------------------------|
  B|--10b11--8---------8h10--(10)--(10)--(10)--(10)---|
  G|------------9---9---------------------------------|
  D|--------------------------------------------------|
  A|--------------------------------------------------|
  E|--------------------------------------------------|


  e|------15h17--17b19--17--15---17b19--17------------|
  B|--17----------------------------------------------|
  G|--------------------------------------------------|
  D|--------------------------------------------------|
  A|--------------------------------------------------|
  E|--------------------------------------------------|


  e|--------------------------------------------------|
  B|-------------------------------10b11--8-----------|
  G|-----------------------------------------9--------|
  D|-(9)(9)(9)--(9)(9)(9)--10s13----------------------|
  A|--------------------------------------------------|
  E|--------------------------------------------------|


  e|--12--10----------12rr--12rr----------------------|
  B|----------8---------------------------------------|
  G|-------------9------------------------------------|
  D|--------------------------------------------------|
  A|--------------------------------------------------|
  E|--------------------------------------------------|


  e|------15h17--17b19--17--15h17p15------------------|
  B|--17------------------------------17--------------|
  G|--------------------------------------------------|
  D|--------------------------------------------------|
  A|--------------------------------------------------|
  E|--------------------------------------------------|


  e|--17b19--17--15--17b19--17--15h17p15--------------|
  B|--------------------------------------17----------|
  G|--------------------------------------------------|
  D|--------------------------------------------------|
  A|--------------------------------------------------|
  E|--------------------------------------------------|

  END
Related for Sympathy For The Devil tab
Sympathy For The Devil chords by Rolling Stones