Guitaretab - guitar tabs
Song name
# A B C D E F G H I J K L M N O P Q R S T U V W X Y Z

Rolling Stones - The Worst tab

ROLLING STONES - THE WORST
(Jagger/Richards)

Tabber: Mord_Wraith
E-mail: thundastruck@hotmail.com
Date: 10/5/2004

Tuning (low to high): EADGBE

Chords used:

D        xx0232
A/D      xx0220
Asus2/D  xx0200
D/F#     200232
Asus2    x02200
A        x02220
E        022100
G        320003

Intro:

     D         A/D           D/F#            A   Asus2

E|-------2-----0-----0-----------------2-----0---0-----|
B|---------3-----2-----2-------------3---3---2---0h2---|
G|-----2-----------2-----2-------------------2-2-2-----|
D|---0-(ring)----------------0-----0---------2---2-----|
A|-------------------------------0-----------0---0-----|
E|-----------------------------2-----------------------|

     D           A/D   Asus2/D E
[ Tab from: http://www.guitaretab.com/r/rolling-stones/16448.html ]
E|---------2-----0-----0-------0---|
B|-------3---3-----2-----0-----0---|
G|-----2-------------2-----2---1---|
D|---0-------------------------2---|
A|-----------------------------2---|
E|-----------------------------0---|

Verse:

           D             G

   Well, I said from the first

   D        A Asus2 A       D/F#

   I am the worst   kind of guy

       G      A         E

   For you to be around

D          G

   Tear me apart

   D              A

   Including this old heart

           D/F#

   That is true

       G                  A

   And never ever let you down

Chorus:

A                D          A           D

   You shouldn't stick with me

A                   D            A        

   You trust me too much, you'll see

---

I posted the chords; just improvise the notes on the chords, and have fun doin' it!
Related for The Worst tab
The Worst chords by Rolling Stones