Song name
# A B C D E F G H I J K L M N O P Q R S T U V W X Y Z

Rolling Stones - Dead Flowers tab

Dead Flowers Solo Tab by Patrick Todd

I've broken the entire solo into eight sections so it's easier to digest/learn. Listen 
play along!

 e-----------------------7----------------------------------------------------------|
 b----------------------------10----------------------------------------------------|
 g-----------7---9(11)--------------(11)-(9)~~~-------------------------------------|
 d---7---9--------------------------------------------------------------------------|
 a----------------------------------------------------------------------------------|
 E----------------------------------------------------------------------------------|

 e----------------------------------------------------------------------------------|
 b--------------------10------------------------------------------------------------|
 g------------7--------------9-(11)-(9)---7---9---7--------7~~~---------------------|
 d---7---9-------9-----------------------------------9------------------------------|
 a----------------------------------------------------------------------------------|
 E----------------------------------------------------------------------------------|

 e----------------------10----------------------------------------------------------|
 b-----------------------------10B---10---8---10------------------------------------|
 g-------------7-----------------------------------9B---9---7--------7---7----------|
 d---7---9---------9--------------------------------------------9-------------------|
 a----------------------------------------------------------------------------------|
 E----------------------------------------------------------------------------------|

 e----------------------------------------------------------------------------------|
 b-------------------10-------------------------------------------------------------|
 g-------------7------------9-(10)-(9)---7---9---7--------7~~~----------------------|
 d---7---9------------------------------------------9-------------------------------|
 a----------------------------------------------------------------------------------|
 E----------------------------------------------------------------------------------|

 e----------------------------------------------------------------------------------|
 b--------------------------10---------10--------10---------------------------------|
 g------------7--------9B---------9B--------9B---------9-(10)-(9)-------------------|
 d---7---9-------9------------------------------------------------------------------|
 a----------------------------------------------------------------------------------|
 E----------------------------------------------------------------------------------|


 e----------------------10----------------------------------------------------------|
 b----------------------------10B---10---8---10-------------------------------------|
 g-------------7-----------------------------------9B---9---7---7-------------------|
 d---7---9---------9----------------------------------------------------------------|
 a----------------------------------------------------------------------------------|
 E----------------------------------------------------------------------------------|

 e---10-----------------------------------------------------------------------------|
 b-------10B---10---8---10----------------------------------------------------------|
 g----------------------------9-(11)-(9)---7------9-(11)-(9)---7---------7----------|
 d---------------------------------------------9-------------------9----------------|
 a----------------------------------------------------------------------------------|
 E----------------------------------------------------------------------------------|

 e----------------------------------------------------------------------------------|
 b------------------------10--------------------------------------------------------|
 g------------7---9-(10)---------9-(11)-(9)---7-------------------------------------|
 d---7---9---------------------------------------9---7------------------------------|
 a-------------------------------------------------------9---7---\5-----------------|
 E---------------------------------------------------------------------5~~~---------|


Thanks and enjoy!
Tap to rate this tab
# A B C D E F G H I J K L M N O P Q R S T U V W X Y Z