Song name
# A B C D E F G H I J K L M N O P Q R S T U V W X Y Z

Rolling Stones - You Gotta Move tab

----------------------------------------------------------------------------
You Gotta Move-The Rolling Stones
----------------------------------------------------------------------------
Tabbed By: Daniel Gargett

Tuning:OPEN C
       CGCGCE

*Slide used throughout song.

INTRO
e-||--------------------------------------0------------------------------|
B-||--------------------------------------0--------0---------------------|
G-||--------/5-----/9-----/10-----/12-----0---8b---0---------------------|
D-||--------------------------------------0---6b---0---------------------|
A-||---------------------------------------------------------------------|
E-||---------------------------------------------------------------------|


e-||--------------------------------------0------------------------------|
B-||--------/7------7-------0-----2/4-----0---2/4--0---------------------|
G-||--------------------------------------0------------------------------|
D-||--------------------------------------0------------------------------|
A-||---------------------------------------------------------------------|
E-||---------------------------------------------------------------------|


e-||---------------------------------------------0-----------------------|
B-||--/7--7--/7--7--/5--5---5--5---/7--4\0-------0---------0-------------|
G-||---------------------------------------------0-----------------------|
D-||---------------------------------------------0----0------------------|
A-||---------------------------------------------------------------------|
E-||---------------------------------------------------------------------|


e-||---------------------------------0-----------------------------------|
B-||---------------0---/3------------0----------0------------------------|
G-||----0---/3-----------------------0-----------------------------------|
D-||---------------------------------0-----0-----------------------------|
A-||---------------------------------------------------------------------|
E-||---------------------------------------------------------------------|


e-||-------------------------------------------------------0-------------|
B-||---/3----0---------------------------------------------0-------0-----|
G-||--------------0---0---0---0----/3---3/5---5/3---3/5----0-------------|
D-||-------------------------------------------------------0---0---------|
A-||---------------------------------------------------------------------|
E-||---------------------------------------------------------------------|


VERSE 1
e-||---------------------------------------------------------------------|
B-||---------------------------------------------------------------------|
G-||--------/5-----/9-----/10-----/12------------------------------------|
D-||---------------------------------------------------------------------|
A-||---------------------------------------------------------------------|
E-||---------------------------------------------------------------------|
            You    got     ta    move
 
e-||--------------------------------------0------------------------------|
B-||--------/7------7-------0-----2/4-----0---2/4--0---------------------|
G-||--------------------------------------0------------------------------|
D-||--------------------------------------0------------------------------|
A-||---------------------------------------------------------------------|
E-||---------------------------------------------------------------------|
            You    got      ta    move

e-||---------------------------------------------0-----------------------|
B-||--/7--7--/7--7--/5--5---5--5---/7--4\0-------0---------0-------------|
G-||---------------------------------------------0-----------------------|
D-||---------------------------------------------0----0------------------|
A-||---------------------------------------------------------------------|
E-||---------------------------------------------------------------------|
     You got ta move chi-i-i-ild   ya gotta move

e-||---------------------------------0-----------------------------------|
B-||---------------0---/3------------0----------0------------------------|
G-||----0---/3-----------------------0-----------------------------------|
D-||---------------------------------0-----0-----------------------------|
A-||---------------------------------------------------------------------|
E-||---------------------------------------------------------------------|
       Oh  when   the lord     

e-||-------------------------------------------------------0-------------|
B-||---/3----0---------------------------------------------0-------0-----|
G-||--------------0---0---0---0----/3---3/5---5/3---3/5----0-------------|
D-||-------------------------------------------------------0---0---------|
A-||---------------------------------------------------------------------|
E-||---------------------------------------------------------------------|
     gets  ready                   ya   got   ta   move
 

VERSE 2
e-||--------------------------------------0------------------------------|
B-||--------------------------------------0--------0---------------------|
G-||--------/5-----/9-----/10-----/12-----0---8b---0---------------------|
D-||--------------------------------------0---6b---0---------------------|
A-||---------------------------------------------------------------------|
E-||---------------------------------------------------------------------|
            You    may     be    high
 
e-||--------------------------------------0------------------------------|
B-||--------/7------7-------0-----2/4-----0---2/4--0---------------------|
G-||--------------------------------------0------------------------------|
D-||--------------------------------------0------------------------------|
A-||---------------------------------------------------------------------|
E-||---------------------------------------------------------------------|
            You    may      be    low

e-||---------------------------------------------0-----------------------|
B-||--/7--7--/7--7--/5--5---5--5---/7--4\0-------0---------0-------------|
G-||---------------------------------------------0-----------------------|
D-||---------------------------------------------0----0------------------|
A-||---------------------------------------------------------------------|
E-||---------------------------------------------------------------------|
     You may be rich chi-i-i-ild  you may be poor

e-||---------------------------------0-----------------------------------|
B-||---------------0---/3------------0----------0------------------------|
G-||----0---/3-----------------------0-----------------------------------|
D-||---------------------------------0-----0-----------------------------|
A-||---------------------------------------------------------------------|
E-||---------------------------------------------------------------------|
       but  when  the lord     

e-||-------------------------------------------------------0-------------|
B-||---/3----0---------------------------------------------0-------0-----|
G-||--------------0---0---0---0----/3---3/5---5/3---3/5----0-------------|
D-||-------------------------------------------------------0---0---------|
A-||---------------------------------------------------------------------|
E-||---------------------------------------------------------------------|
     gets  ready                   ya   got   ta   move


Instrumental Secion
e-||---------------------------------------------------------------------|
B-||----12----12/16---16/17---17/19--------------------------------------|
G-||---------------------------------------------------------------------|
D-||---------------------------------------------------------------------|
A-||---------------------------------------------------------------------|
E-||---------------------------------------------------------------------|

e-||---------------------------------------------------------------------|
B-||-----/19--19----/12-----/16------------------------------------------|
G-||---------------------------------------------------------------------|
D-||---------------------------------------------------------------------|
A-||---------------------------------------------------------------------|
E-||---------------------------------------------------------------------|

e-||---------------------------------------------------------------------|
B-||-----/19--19--19--19---/17---17--17---17--/19---16\12----------------|
G-||---------------------------------------------------------------------|
D-||---------------------------------------------------------------------|
A-||---------------------------------------------------------------------|
E-||---------------------------------------------------------------------|


e-||---------------------------------------------------------------------|
B-||-------------12/15---------------------------------------------------|
G-||----12/15------------------------------------------------------------|
D-||---------------------------------------------------------------------|
A-||---------------------------------------------------------------------|
E-||---------------------------------------------------------------------|


e-||---------------------------------------------------------------------|
B-||-----15/12-----------------------------------------------------------|
G-||--------------12-----------------------------------------------------|
D-||---------------------------------------------------------------------|
A-||---------------------------------------------------------------------|
E-||---------------------------------------------------------------------|


e-||---------------------------------------------------------------------|
B-||---------------------------------------------------------------------|
G-||-------15---15/17-----17\15----15/17---------------------------------|
D-||---------------------------------------------------------------------|
A-||---------------------------------------------------------------------|
E-||---------------------------------------------------------------------|


VERSE 3
e-||--------------------------------------0------------------------------|
B-||--------------------------------------0--------0---------------------|
G-||--------/5-----/9-----/10-----/12-----0---8b---0---------------------|
D-||--------------------------------------0---6b---0---------------------|
A-||---------------------------------------------------------------------|
E-||---------------------------------------------------------------------|
            You    see    that   woman 
e-||--------------------------------------0------------------------------|
B-||--------/7------7-------0-----2/4-----0---2/4--0---------------------|
G-||--------------------------------------0------------------------------|
D-||--------------------------------------0------------------------------|
A-||---------------------------------------------------------------------|
E-||---------------------------------------------------------------------|
            Who    walks   the  street

e-||---------------------------------------------0-----------------------|
B-||--/7--7--/7--7--/5--5---5--5---/7--4\0-------0---------0-------------|
G-||---------------------------------------------0-----------------------|
D-||---------------------------------------------0----0------------------|
A-||---------------------------------------------------------------------|
E-||---------------------------------------------------------------------|
     You see that po - li - i - ce upon his beat

e-||---------------------------------0-----------------------------------|
B-||---------------0---/3------------0----------0------------------------|
G-||----0---/3-----------------------0-----------------------------------|
D-||---------------------------------0-----0-----------------------------|
A-||---------------------------------------------------------------------|
E-||---------------------------------------------------------------------|
       but  then  the lord     

e-||-------------------------------------------------------0-------------|
B-||---/3----0---------------------------------------------0-------0-----|
G-||--------------0---0---0---0----/3---3/5---5/3---3/5----0-------------|
D-||-------------------------------------------------------0---0---------|
A-||---------------------------------------------------------------------|
E-||---------------------------------------------------------------------|
     gets  ready                   ya   got   ta   move

OUTRO
e-||--------------------------------------0------------------------------|
B-||--------------------------------------0--------0---------------------|
G-||--------/5-----/9-----/10-----/12-----0---8b---0---------------------|
D-||--------------------------------------0---6b---0---------------------|
A-||---------------------------------------------------------------------|
E-||---------------------------------------------------------------------|


e-||--------------------------------------0------------------------------|
B-||--------/7------7-------0-----2/4-----0---2/4--0---------------------|
G-||--------------------------------------0------------------------------|
D-||--------------------------------------0------------------------------|
A-||---------------------------------------------------------------------|
E-||---------------------------------------------------------------------|


e-||---------------------------------------------0-----------------------|
B-||--/7--7--/7--7--/5--5---5--5---/7--4\0-------0---------0-------------|
G-||---------------------------------------------0-----------------------|
D-||---------------------------------------------0----0------------------|
A-||---------------------------------------------------------------------|
E-||---------------------------------------------------------------------|


e-||---------------------------------0-----------------------------------|
B-||---------------0---/3------------0----------0------------------------|
G-||----0---/3-----------------------0-----------------------------------|
D-||---------------------------------0-----0-----------------------------|
A-||---------------------------------------------------------------------|
E-||---------------------------------------------------------------------|


e-||-------------------------------------------------------0-------------|
B-||---/3----0---------------------------------------------0-------0-----|
G-||--------------0---0---0---0----/3---3/5---5/3---3/5----0-------------|
D-||-------------------------------------------------------0---0---------|
A-||---------------------------------------------------------------------|
E-||---------------------------------------------------------------------|

END
Please Rate & Comment!


Tablature Legend
----------------
 h   - hammer-on
 p   - pull-off
 b   - bend
 pb  - pre-bend
 r   - bend release (if no number after the r, then release immediately)
 /\  - slide into or out of (from/to "nowhere")
 s   - legato slide
 S   - shift slide
  - natural harmonic
[n]  - artificial harmonic
n(n) - tapped harmonic
 ~   - vibrato
 tr  - trill
 T   - tap
 TP  - trem. picking
 PM  - palm muting
\n/  - tremolo bar dip; n = amount to dip
 \n  - tremolo bar down
 n/  - tremolo bar up
/n\  - tremolo bar inverted dip
 =   - hold bend; also acts as connecting device for hammers/pulls
 <>  - volume swell (louder/softer)
 x   - on rhythm slash represents muted slash
 o   - on rhythm slash represents single note slash

Tap to rate this tab
# A B C D E F G H I J K L M N O P Q R S T U V W X Y Z