Song name
# A B C D E F G H I J K L M N O P Q R S T U V W X Y Z

Rolling Stones - Jiving Sister Fanny chords

Highlighted       Show chord diagrams
------------------------------------------------------
Jiving Sister Fanny  The Rolling Stones
-------------------------------------------------------------------------------
Tabbed by:Francis

Tuning:EADGBe

D			                            C
Jivin' Sister Fanny, told her man from
	          D
Philly, PA

Uh, huh, huh, huh
D		                                   C
He tore down the station said she didn't
		                D
like the way we played

Uh, huh, huh, huh
D                               C
If you got a favourite guy, get you babe,

real no why
D	                        C
Man from you down inside, got it

feathered by the while
D			                     C
Ooh, child, you got me walkin' down the
             D
broad highway

Uh, huh, huh, huh

Now, Jivin' Sister Fanny got the brain of a
dinosaur
Uh, huh, huh, huh
Well, she hocked my fancy mother and she
hocked my electric guitar
Then she's waitin' in the store, tell her to
wait, er, waitin' for
Glad she's on the waiting good
By Charles oh watch 'er, you wait good
Ooh, child, you got me walkin' down the
broad highway


The blues riff can be played like this:

e|------------------------------------------------------------------------------|
B|------------------------------------------------------------------------------|
G|------------------------------------------------------------------------------|
D|---7--9--7--9--5--7--5--7--7--9--7--9-----------------------------------------|
A|---5--5--5--5--3--3--3--3--5--5--5--5-----------------------------------------|
E|------------------------------------------------------------------------------|

Or like this:

e|---------------------------------------------------------------------------|
B|---3--3--3--3--1--1--1--1--3--3--3--3--------------------------------------|
G|---2--4--2--4--0--2--0--2--2--4--2--4--------------------------------------|
D|---0--0--0--0--------------0--0--0--0--------------------------------------|
A|---------------3--3--3--3--------------------------------------------------|
E|---------------------------------------------------------------------------|

Listen to the song to get the rhythm. enjoy
Tap to rate this tab
 
# A B C D E F G H I J K L M N O P Q R S T U V W X Y Z