Guitaretab - guitar tabs
Song name
# A B C D E F G H I J K L M N O P Q R S T U V W X Y Z

Rolling Stones - Poison Ivy tab

The Rolling Stones - Poison ivy


Tuning: Standart
Mail: degot@bk.ru

\ - slide (e.g. 7\9 slide from 7 to 9)
h - hammer-on
p - pull-off
^^ - bend

Main theme
e|---------------------------------------------------------------------------------|
B|------------------------9--9---------7--7-7\9------------------------------------|
G|----------------------9----9-------7----7-7\9------------------------------------|
D|--------------------9------9-----7------7-7\9------------------------------------|
A|---------2h4p2----7--------7---5--------5-5\7------------------------------------|
E|---0-3h4-------------------------------------------------------------------------|
[ Tab from: http://www.guitaretab.com/r/rolling-stones/246312.html ]
Chorus
e|---------------------------------------------------------------------------------|
B|---------------------------------------------------------------------------------|
G|---------------------------------------------------------------------------------|
D|---------------------------------------------------------------------------------|
A|---2^^------7h11-----7h11---2\3h6---2\3h6-----7h11-------12h16-----7h11-----6h7--|
E|---------9-9------9-9------4-------4-------9-9------14-14-------9-9------7-7-----|

Solo
e|---------------------------------------------------------------------------------|
B|---------------------------------------------------------------------------------|
G|---------------------------------------------------------------------------------|
D|---------------------------------------------------------------------------------|
A|-----------7h9p7-------7h9p7-------2h4p2-------2h4p2-------7h9p7-------7h9p7--7\-|
E|------5-8h9-------5-8h9-------0-3h4-------0-3h4-------5-8h9-------5-8h9----------|

Outro
e|---------------------------------------------------------------------------------|
B|----7--8--9----------------------------------------------------------------------|
G|----7--8--9----------------------------------------------------------------------|
D|----7--8--9----------------------------------------------------------------------|
A|---------------------------------------------------------------------------------|
E|---------------------------------------------------------------------------------|

Related for Poison Ivy tab
Poison Ivy chords by Rolling Stones