Song name
# A B C D E F G H I J K L M N O P Q R S T U V W X Y Z

Rolling Stones - Factory Gril tab

Factory Girl 
The Rolling Stones

from 'Beggars Banquet'



Main Riff

E --0h2--2----------0h2--2--------
B --------------------------------
G ----------2---------------2-----
D --0----0-----0----0----0-----0--
A --------------------------------
E --------------------------------

E --0--------0-------0--------0---
B --------------------------------
G -----0--------0-------0--------0
D --0-----0----------0-----0------
A --------------------------------
E --------------------------------

Tap to rate this tab
 
# A B C D E F G H I J K L M N O P Q R S T U V W X Y Z