Song name
# A B C D E F G H I J K L M N O P Q R S T U V W X Y Z

Rolling Stones - Get Off Of My Cloud tab

its a pretty straight forward song. E A B A

verses
e|--------------------------------|--------------------------------|
B|--------------------------------|--------------------------------|
G|------------------------2---2---|--------4---------------2---2---|
D|--------2---------------2---2---|--------4---------------2---2---|
A|--------2-------0-------0---0---|2-------2-------0-------0---0---|
E|0-------0-----------------------|--------------------------------|

Chorus
e|--------------------------------|--------------------------------|
B|--------------------------------|--------------------------------|
G|--------------------------------|2-------2---2---4-------4---4---|
D|2-------2---2---6-------6---6---|2-------2---2---4-------4---4---|
A|2-------2---2---6-------6---6---|0-------0---0---2-------2---2---|
E|0-------0---0---4-------4---4---|--------------------------------|
  Hey!            You!             Get Off Of My Cloud!
Tap to rate this tab
# A B C D E F G H I J K L M N O P Q R S T U V W X Y Z