Rolling Stones - Factory Girl tab

-----------------------------------------------------------------------------
			     FACTORY GIRL - The Rolling Stones
-----------------------------------------------------------------------------
Tabbed by: emmavdl
Email: ervdl@yahoo.com

Tuning: Standard EADGBE

this song just has the coolest intro and i couldn't find ANY tabs that showed the real 
picking for it so I just drew this one up. Its my first tab but it is correct. If you 
have any questions email me.

e|---------------------------------------|----------------------------------|
B|----------------0------0h3----0-----3--|----------------------------------|
G|----0h2-----2--------------------------|----------------------------------|
D|---------0---------0--------0-----0----|----------------------------------|
A|---------------------------------------|----------------------------------|
E|---------------------------------------|----------------------------------|

e|-----0h2------0--------------------------|--------------------------------|
B|------------------0------0h3--------3----|-------------0-----0h3----0---3-|
G|--------------------------------2--------|--0h2----2----------------------|
D|----------0----------0--------0-------0--|-------0--------0---------------|
A|-----------------------------------------|-----------------------0----0---|
E|-----------------------------------------|--------------------------------|

e|--0h2-----------0--0---0h2--------2--2---|--------------------------------|
B|-----------3----0--0---0h3-----3--3--3---|-----------0-----0h3----0----3--|
G|----------------0--0---0h2---------------|--0h2---2-----------------------|
D|--------0-------------------0------------|------0-------0-----------------|
A|-----------------------------------------|----------------------0----0----|
E|-----------------------------------------|--------------------------------|

e|--0h2----0-------------------------------|--0h2----0---------------0------|
B|------------0-----0h3--------3-----------|------------3-----0h2----0--0-0-|
G|------------------------2----------------|----------------------2-----0-0-|
D|-------0-------0------0-----------0------|------0--------0----------------|
A|-----------------------------------------|--------------------------------|
E|-----------------------------------------|--------------------------------|

e|----------------------------------|--0h2-----0h2--------------------------|
B|-3---------0----0h3---------3-----|--0h3-----0h3---0h2----0---0--0--0-----|
G|------2-----------------2-----2---|--0h2-----0h2---0h2----0---0--0--0-----|
D|----0---------0------0------------|-------0------0-----0------------------|
A|----------------------------------|---------------------------------------|
E|----------------------------------|---------------------------------------|

e|----------------------------------|---------------------------------------|
B|-3---------0-----0h3--------3-----|-----------0------0h3------0-----3-----|
G|-------2----------------2---------|-0h2---2-------------------------------|
D|----0---------0-------0-------0---|-----0--------0--------0------0--------|
A|----------------------------------|---------------------------------------|
E|----------------------------------|---------------------------------------|

e|--0h2-----0-----------------------|---------------------------------------|
B|-------------0-----0h3-------3----|------------0-------0h3-----0------3---|
G|--------------------------2-------|--0h2---2------------------------------|
D|-------0--------0-------0-------0-|------0--------0---------0------0------|
A|----------------------------------|---------------------------------------|
E|----------------------------------|---------------------------------------|

e|--0h2---------0--0--0h2-------2-2-|---------------------------------------|
B|----------3---0--0--0h3----3--3-3-|-----------0------0h3-----0------3-----|
G|--------------0--0--0h2-----------|--0h2---2------------------------------|
D|-------0-----------------0--------|------0-------0--------0------0--------|
A|----------------------------------|---------------------------------------|
E|----------------------------------|---------------------------------------|

e|--0h2-----0-----------------------|--0h2---0----2-------------------------|
B|-------------0-----0h3------3-----|--0h3---0----3--0h2--2--0--0--0--------|
G|-------------------------2--------|--0h2---0----2----------0--0--0--------|
D|-------0--------0------0-------0--|-----------0---------------------------|
A|----------------------------------|---------------------------------------|
E|----------------------------------|---------------------------------------|

e|----------------------------------|--0h2---0--2---------------------------|
B|-----------------0--0h3-------3---|--0h3---0--3----0h2-------0--0--0--0---|
G|--0h2-----2----------------2----2-|--0h2---0--2----0h2-------0--0--0--0---|
D|-------0------0----------0--------|------0-------0-------0----------------|
A|----------------------------------|---------------------------------------|
E|----------------------------------|---------------------------------------|

e|----------------------------------|---------------------------------------|
B|--3---------0------0h3--------3---|---------------------------------------|
G|--------2-----------------2-------|---------------------------------------|
D|------0--------0--------0-------0-|---------------------------------------|
A|----------------------------------|---------------------------------------|
E|----------------------------------|---------------------------------------|


************************************

| /   slide up
| \   slide down
| h   hammer-on
| p   pull-off
| ~   vibrato
| +   harmonic
| x   Mute note
| b   Bend
| pb  Pre-bend
| br  Bend release
| pbr Pre-bend release
| brb Bend release bend

************************************
Tap to rate this tab
 
# A B C D E F G H I J K L M N O P Q R S T U V W X Y Z