Song name
# A B C D E F G H I J K L M N O P Q R S T U V W X Y Z

Rolling Stones - Anybody Seen My Baby tab

This is the last solo heard on the song.
Feel free to contact me if you find any mistakes.

e|-------------------------------------------------------------|
B|-12-15-17-19-20-19-17b19-17-17p15----15-17-15----------12----|
G|----------------------------------16----------14-12-14-------|
D|----------------------------------------------------------14-|
A|-------------------------------------------------------------|
E|-------------------------------------------------------------|

e|-------------------------------------------------------|
B|----------------12----------------------------15-17----|
G|-14-12-14-12-14-------12h14p12-11-12-11-14-12----------|
D|-------------------14-------------------------------14-|
A|-------------------------------------------------------|
E|-------------------------------------------------------|

e|------------------|
B|-------12---------|
G|-12s14------------|
D|----------14-(x2)-|
A|------------------|
E|------------------|
Tap to rate this tab
# A B C D E F G H I J K L M N O P Q R S T U V W X Y Z