Song name
# A B C D E F G H I J K L M N O P Q R S T U V W X Y Z

Rolling Stones - As Tears Go By tab

Easy way to play the melody of "As Tears Go By".

--3--5--7--5-5--0--3-3--0--3--2---|
----------------------------------|
----------------------------------|
----------------------------------|
----------------------------------|
----------------------------------|

--3--5--7--5-5--0--3-3--0--3--2---|
----------------------------------|
----------------------------------|
----------------------------------|
----------------------------------|
----------------------------------|

--8-8-8--7--5-5-5-3-5--7-7--5--3-0-|
-----------------------------------|
-----------------------------------|
-----------------------------------|
-----------------------------------|
-----------------------------------|

--12-12-12-12--0--2--3--5--3-5-3-2-|
-----------------------------------|
-----------------------------------|
-----------------------------------|
-----------------------------------|
-----------------------------------|
Tap to rate this tab
 
# A B C D E F G H I J K L M N O P Q R S T U V W X Y Z