Song name
# A B C D E F G H I J K L M N O P Q R S T U V W X Y Z

Rolling Stones - Its All Over Now tab

-------------------------------------------------------------------------------
                             It's all over now - Rolling Stones
-------------------------------------------------------------------------------
Tabbed by: HandsonFire84
E-mail: Hardrocker91191@hotmail.com

Hi folks! I have seen people asking for the solo for this great song, and I can't find 
any tabs for the solo anywhere. So I thought I would tab the solo for those that want to 
learn it. This is my first tab, so if there is any mistakes, feel free to tell me.

Tuning: Standard

E----------------------------------3--------------------------------------|
B-5b-5b-----------5b---------------------------------5b---5b-----------5b-|
G-5b-5b-3p0h3p0h3-5b-3p0h3h5p3-3b5---5p3p0-3p0h3p0h3-5b-3-5b-3p0h3h5p3-5b-|
D-------------------------------------------------------------------------|
A-------------------------------------------------------------------------|
E-------------------------------------------------------------------------|

E-------------------------------------------------------------------------|
B-------5b-------------------------5b-------5b-------5b---5b---5b---------|
G-3p0h3-5b-3p0h3p0h3p0h3p0-3-3---3-5b-3p0h3-5b-3p0h3-5b-3-5b-3-5b-3p0h3p0-|
D--------------------------3-3---3----------------------------------------|
A------------------------------5------------------------------------------|
E-------------------------------------------------------------------------|

E-------------------------------------------------------------------------|
B----------11-13-11b13-13p11----------11-11b13-11b13-11b13-11b13-11b13-13-|
G-h3-10s12-------------------12-10s12-------------------------------------|
D-------------------------------------------------------------------------|
A-------------------------------------------------------------------------|
E-------------------------------------------------------------------------|

E--------------3-----------------------------------------------------------|
B-p11----11----------------5b-----------------------------------5b---------|
G-----12----12---3b5-5p3p0-5b-3p0h3p0-3-3-----3-3-----3-3-----3-5b-3p0h3---|
D-------------------------------------3-3-----3-3-----3-3-----3------------|
A-----------------------------------------3s5-----3s5-----3s5--------------|
E--------------------------------------------------------------------------|

E-------------------------------------------------------------------------|
B-5b-------5b-----------5b-----------5b-----------------------------------|
G-5b-3p0h3-5b-3p0h3p0h3-5b-3p0h3h5p3-5b-----------------------------------|
D-------------------------------------------------------------------------|
A-------------------------------------------------------------------------|
E-------------------------------------------------------------------------|


************************************

| /   slide up
| \   slide down
| h   hammer-on
| p   pull-off
| ~   vibrato
| +   harmonic
| x   Mute note
| b   Bend
| pb  Pre-bend
| br  Bend release
| pbr Pre-bend release
| brb Bend release bend

************************************
Tap to rate this tab
 
# A B C D E F G H I J K L M N O P Q R S T U V W X Y Z