Song name
# A B C D E F G H I J K L M N O P Q R S T U V W X Y Z

Rolling Stones - I Cant Get Know Satisfaction tab

Help us improve GuitareTab! Take a short survey!
           I Cant Get No Satisfacton- The Rolling Stones
Wassup all you stones fans ,I'm Floated Parrot.this is my first tab so if it sounds 
dont blame me. the reason im doing this tab is becuase thee is know stinking tab for this 
@$$ song. and on with the show.

oh ya if you got any compliants send me an email at:gotmilkdude@msn.com

Tuning: Standard

                                                 Repeat 4x
e|---------------------------------------------------------|
B|---------------------------------------------------------|
G|---------------------------------------------------------|
D|-----------------0---------------------------------------|
A|-----2--2--2--4-------5--5/4--4----2---------------------|
E|---------------------------------------------------------|
                                               Repeat
e|---------------------------------------------------------|
B|---------------------------------------------------------|
G|---------------------------------------------------------|
D|------------------2-----------2--------------------------|
A|---2--2-----2-----0-----------0--------------------------|
E|---0--0-----0------------3--------3----------------------|

The rhtyhtm is kinda messeed so play it like its played on the song.

| /  slide up
| \  slide down
| h  hammer-on
| p  pull-off
| ~  vibrato
| +  harmonic
| x  Mute note
Related for I Cant Get Know Satisfaction tab