Song name
# A B C D E F G H I J K L M N O P Q R S T U V W X Y Z

Rolling Stones - Jigsaw Puzzle tab

Band: Rolling Stones
Song: Jigsaw Puzzle
Album: Beggars Banquet
Tabbed by dionysus85
dionysus1985@hotmail.com
___________________________________
This is one of my favourite Stones
songs and is alot of fun to play
___________________________________________________________________

Guitar 1 plays these chords throughout the song in standard tuning
Verse: B, A, F#, E
Chorus: E, F#, A, B, B, A, A, B, B
___________________________________________________________________

Guitar 2 is in "Open E" tuning with a slide
the 2nd guitar Break/solos are just variations of the intro
just do the 20/22 slide numerous times
these tabs are just rough guides, Brian never plays it the
same way twice so listen to the track and fiddle around with it :D
___________________________________________________________________

Guitar 2 Intro
E |------------------------------------------------|
B |--20/22------20/22--20/22\20----20\14----14/15--|
G#|--20/22------20/22--20/22\20----20\14----14/15--|
E |------------------------------------------------|
B |------------------------------------------------|
E |------------------------------------------------|

Guitar 2 Verses
E |--------------------------------------------|
B |--------------------------------------------|
G#|--/7----/7--/7\5----5\2---2\0---------------|
E |--/7----/7--/7\5----5\2---2\0-----------0---|
B |--------------------------------------0-----|
E |--------------------------------0--/4-------|

Chorus
E |-------------------------------------------------------------------|
B |---/12----12/14----14/17----17/19---19\7----7\5-----5/17----17/19--|
G#|---/12----12/14----14/17----17/19---19\7----7\5-----5/17----17/19--|
E |---/12----12/14----14/17----17/19---19\7----7\5-----5/17----17/19--|
B |---/12----12/14----14/17----17/19---19\7----7\5-----5/17----17/19--|
E |-------------------------------------------------------------------|
Tap to rate this tab
# A B C D E F G H I J K L M N O P Q R S T U V W X Y Z