Song name
# A B C D E F G H I J K L M N O P Q R S T U V W X Y Z

Rolling Stones - Parachute Woman tab

----------------------------------------------------------------------------
			     Parachute Woman - Rolling Stones
----------------------------------------------------------------------------
Tabbed by: Joe O.
Email: bustamoves@swbell.net

Tuning: Standard
Key: E

    E  E E  E E  E  G A G     Repeat 4 times
e|----------------------------||
B|------------------0---0-----||
G|------------------0-2-0----o||  <---- Main Riff
D|--2--2-2--2-2--2--0-2-0----o||
A|--2--2-2--2-2--2------------||
E|--0--0-0--0-0--0------------||

   A [stay on A for 2 measures; 8 beats]*
e|------------------------------|
B|------------------------------|
G|-2----------------------------|
D|-2----------------------------|
A|-0----------------------------|
E|------------------------------|

Go back to Main Riff 2 times


Go to A [2 measures]


Main Riff 2 times


    B7  [stay on B7 for 1 measure; 4 beats]
e|--2---------------------------------------|
B|--0---------------------------------------|
G|--2---------------------------------------|
D|--1---------------------------------------|
A|--2---------------------------------------|
E|------------------------------------------|


Go to A for 1 measure; 4 beats

Play Main Riff twice then go to A [marked by * above]

^that is the whole song except for a short solo and then an outro solo

   \"SOLO\"

e|-----------------------------------------------------------------------------|
B|---15--15--------------------------------------------------------------------|
G|--b14-b14--repeat \"a bunch\"[<-technical term]------------------------------|
D|-----------------------------------------------------------------------------|
A|-----------------------------------------------------------------------------|
E|-----------------------------------------------------------------------------|

[^those bends are used variously throughout the song as well]

   \"OUTRO SOLO\"

e|-------------------------------------------------------------------------|
B|--15--15-----------------------12~~~---12~~~----5~~----------------------|
G|-b14-b14--repeat a few times--b14~~~--b14~~~---b7~~----------------------|
D|-------------------------------------------------------------------------|
A|-------------------------------------------------------------------------|
E|-------------------------------------------------------------------------|

The song ends with a harmonica playing...you can also jam this song with some slide 
or some soloing in the E minor pentatonic.

| /  slide up
| \\  slide down
| h  hammer-on
| p  pull-off
| ~  vibrato
| +  harmonic
| x  Mute note
============================================================================
Tap to rate this tab
# A B C D E F G H I J K L M N O P Q R S T U V W X Y Z