Song name
# A B C D E F G H I J K L M N O P Q R S T U V W X Y Z

Rolling Stones - Fool To Cry tab

Tabbed by: MaidenBass1991
Email:tom4becca@hotmail.co.uk

Tuning: Standard

This Peice of Lead guitar Isnt Actually in the Real Version Of the song , However I was 
about With Lead GUitar Fills And Figured This Works

Email Me For Any Suggestions/Corrections

Thanks

Begin Playing this  at about 00:18

"When I Come Home Baby...
e|--------------------------------------------------------------------------|
B|--------------------------------------------------------------------------|
G|--14b/5-7----7-5-3-5~----7-5-3-5------------------------------------------|
D|--------------------------------3~----------------------------------------|
A|--------------------------------------------------------------------------|
E|--------------------------------------------------------------------------|

Reapeat the Above Line At Intervals When Keith stops singing.

Im Not Very Sure of The Chorus But If You Play With The Notes Above and Maybe Add some 
these Scales In Somewhere , I should Sound Pretty Good

Scale 1

e|--------------------------------------------------------------------------|
B|--------------------------------------------------------------------------|
G|---------------5-7b-5b~---------------------------------------------------|
D|-----------5-7------------------------------------------------------------|
A|-------5-7----------------------------------------------------------------|
E|--5-7---------------------------------------------------------------------|


Scale 2
e|--------------------------------------------------------------------------|
B|--------------------------------------------------------------------------|
G|-------------3-5b5b-3-----------------------------------------------------|
D|---------3-5--------------------------------------------------------------|
A|------3-5-----------------------------------------------------------------|
E|--3-5---------------------------------------------------------------------|

| /  slide up
| \  slide down
| h  hammer-on
| p  pull-off
| ~  Wiggle string
| +  harmonic
| x  Mute note

Using What I Have Shown Here , You Should Be able to Create Some GOod Licks and possibly 
A Nice Solo

Im Not Sure About The Chorus Bits , But im Pretty Sure The Verse Fits

I'l Update It when I Figure More Stuff Out

Thanks
Tap to rate this tab
# A B C D E F G H I J K L M N O P Q R S T U V W X Y Z