Song name
# A B C D E F G H I J K L M N O P Q R S T U V W X Y Z

Rollins Band - Change It Up tab

7p5	= pull-off
8b9	= druk 8e fret op naar 9e/bend 8th fret to 9th
7b8r7	= druk 7e fret op naar 8e en laat weer terugkomen in oude positie/
	  bend 7th fret to 8th and release to old position
\	= slide omlaag/slide down
/	= slide omhoog/slide up
\\\	= langzame slide omlaag/slow slide down
0	= afdempen/mute strings
R	= rust/rest

INTRO

opmerking: speel accoorden met steeds wat minder afdemping/
note: play chords with less and less muting
		
E --------------------------------|
B --------------------------------|
G --------------------------------|
D --------------------------------|	
A -2-2-2-2-2-2-2-2-2-2-2-2-2-etc.-|		
E -0-0-0-0-0-0-0-0-0-0-0-0-0-etc.-|

RIFF A

   1.2.keer/time

E -----------------------------------------|-----------------------|
B -----------------------------------------|-----------------------|
G -----------------------------------------|-drumroffels/drumfills-|
D ------4-------------2--------------------|-----------------------|	
A --------4--3--2-3-4---4-3-2-0-----4-4\\\-|-R---------------------|		
E -12\--------------------------2-0-2-2\\\-|-R---------------------|

   3 .keer/time

E ----------------------------------|
B ----------------------------------|
G ----------------------------------|
D ------4-------------2-------------|	
A --------4--3--2-3-4---4-3-2-0-----|		
E -12\--------------------------2-0-|

loopje tijdens drumroffels, later in nummer/
lick during drumfills, later on in the song:



E -------------------|
B -------------------|
G -4b6r4p2-----------|
D ---------4-2-2-2---|	
A -----------------4-|		
E -------------------|

RIFF B



  1.2.3. keer/time		4. keer/time

E -------------------|----------------------------|
B -------------------|----------------------------|
G -9--6--8--8--8-8-8-|-2-2-4-----------/4-2-------|
D -8--4--7--7--7-7-7-|-2-2-4--4--4-4-4------4-2---|	
A ----4--------------|-0-0-2--2--2-2-2----------4-|		
E -------------------|----------------------------|

TUSSENSTUK/INTERLUDE



  1.2.3.4.5.6.  keer/time	    7. keer/time

E ------------|---------------|
B ------------|---------------|
G ------------|----------5----|
D ------------|-------6--6--6-|	
A -4-6-6--6-6-|-6-6-R-4-----6-|		
E ------------|---------------|



E --------------------------------|
B --------------------------------|
G --------------------------------|
D -9-9-9-9-9-9-9-9-9-9-9-9-9-etc.-|	
A -7-7-7-7-7-7-7-7-7-7-7-7-7-etc.-|		
E --------------------------------|

EINDE/END

E -----------------|-----------------|
B -----------------|-----------------|
G -2-2-4--4--4-4-4-|-2-2-4--4--4-4-4-|
D -2-2-4--4--4-4-4-|-2-2-4--4--4-4-4-|
A -0-0-2--2--2-2-2-|-0-0-2--2--2-2-2-|	
E -----------------|-----------------|



E -----------------|------------------------------|
B -----------------|------------------------------|
G -2-2-4--4--4-4-4-|-2-2-4------------------------|
D -2-2-4--4--4-4-4-|-2-2-4-4-4-4-4-4-4-4-4-4-etc.-|
A -0-0-2--2--2-2-2-|-2-2-2-2-2-2-2-2-2-2-2-2-etc.-|
E -0-0-2--2--2-2-2-|-0-0-2-2-2-2-2-2-2-2-2-2-etc.-|

E ---------------------------------------------|
B ---------------------------------------------|
G ---------------------------------------------|
D -8/9-9-9-8/9-9-9-8/9-9-9-8/9-9-9-8/9-8/9-9\--|	
A -6/7-7-7-6/7-7-7-6/7-7-7-6/7-7-7-6/7-6/7-7\--|		
E ---------------------------------------------|
Tap to rate this tab
 
# A B C D E F G H I J K L M N O P Q R S T U V W X Y Z