Song name
# A B C D E F G H I J K L M N O P Q R S T U V W X Y Z

Rolo Tomassi - Oh Hello Ghost tab

Song: Oh, Hello Ghost
Artist: Rolo Tomassi
Album: Hysterics

Tabbed by: garyhann
Email: garyhann@live.co.uk

Tuning: Standard


Intro
e|---------------------------------|
B|---------------------------------|
G|---------------------------------|
D|----2----------------------------|
A|------3--------2-------0---------|
E|--0-----5~-------3~------2~------|

Bridge
e|-----------|
B|-----------|
G|--------2--|
D|----2------|
A|------3----|
E|--0--------|

End
e|-------------------|
B|-------------------|
G|--------2----------|
D|----2-----2--------|
A|------3-----5~-----|
E|--0----------------|


Very simple song to play but it sounds awesome =D
Tap to rate this tab
 
# A B C D E F G H I J K L M N O P Q R S T U V W X Y Z