Song name
# A B C D E F G H I J K L M N O P Q R S T U V W X Y Z

Rolo Tomassi - I Love Turbulence tab

----------------------------------------------------------------------------
			     I Love Turbulence - Rolo Tomassi
----------------------------------------------------------------------------

Tabbed by: calvrhodes
Email: calv.rhodes@gmail.com

Tuning: EADGBE


E||------------------|-----------------|-----------------|
B||------------------|-----------------|-----------------|
G||*-----------------|-------------4---|-----------------|
D||*-----5-3---------|-5-3-----6-3-----|-----5-3---------|
A||--3-------6---3---|-----5-6---------|-3-------6---3---|
E||------------------|-----------------|-----------------|






   
E|-----------------|------------------||-----------------|
B|-----6-4---------|-------------4-7--||-----------------|
G|-4-5-----7---4---|-----------4-----*||-----------------|
D|-----------6---3-|-6---3---4-------*||-----------------|
A|-----------------|---5---2----------||-----------------|
E|-----------------|------------------||-----------------|





  9/8
   
E|-----------------------|-----------------------|-----------------------|
B|--6-8-4----------9-7-8-|--6-8-4----------9-7-8-|--6-8-4----------9-7-8-|
G|--------6-5-4-8-----7--|--------6-5-4-8-----7--|--------6-5-4-8-----7--|
D|-------5---5---7------9|-------5---5---7------9|-------5---5---7------9|
A|-5--------------7------|-5--------------7------|-5--------------7------|
E|---------4-------------|---------4-------------|---------4-------------|





  4/4
   
E|-------------------|----------------|-------------------|----------------|
B|----------------6--|-5--------------|----------------6--|-5--------------|
G|-4-5--------6------|---------8---7--|-4-5--------6------|---------8---7--|
D|-----6-5-4-7-------|-----8----------|-----6-5-4-7-------|-----8----------|
A|-------------------|----------------|-------------------|----------------|
E|-------------------|----------------|-------------------|----------------|





  9/8                                              4/4
   
E|-----------------------|-----------------------|--------------------|
B|--6-8-4----------9-7-8-|--6-8-4----------9-7-8-|----------------6---|
G|--------6-5-4-8-----7--|--------6-5-4-8-----7--|-4-5--------6-------|
D|-------5---5---7------9|-------5---5---7------9|-----6-5-4-7--------|
A|-5--------------7------|-5--------------7------|--------------------|
E|---------4-------------|---------4-------------|--------------------|





                                       
   
E|----------------|-------------------|----------------|-------------------|
B|-5--------------|----------------6--|-5--------------|----------------6--|
G|---------8---7--|-4-5--------6------|---------8---7--|-4-5--------6------|
D|-----8----------|-----6-5-4-7-------|-----8----------|-----6-5-4-7-------|
A|----------------|-------------------|----------------|-------------------|
E|----------------|-------------------|----------------|-------------------|





                    5/4
                            
E|-----------------|---------------------||----------------------|
B|-5---------------|---------------------||--5+--------------5---|
G|---------8---7---|---------------------||*-5+--------------5---|
D|-----8-----------|---------------------||*-5+--------------5---|
A|-----------------|---------------------||--7+--------------7---|
E|-----------------|---------------------||--5+--------------5---|






   
E|---------------------|---------------------|--------------------||
B|-5+--------------5---|-6+--------------6---|-3+--------------3--||
G|-5+--------------5---|-9+--------------9---|-5+--------------5-*||
D|-9+--------------9---|-7+--------------7---|-3+--------------3-*||
A|-7+--------------7---|-8+--------------8---|-5+--------------5--||
E|-8+--------------8---|---------------------|--------------------||





  6/4                         5/4
   
E||--------------------------|---------------------|
B||--------------------------|---------------------|
G||*-------------------------|---------------------|
D||*-------------------------|---------------------|
A||------7-10----------------|-----7-10------------|
E||--5-8-----10--8-7-8---5---|-5-8-----10--8-7-8---|





  7/4                              5/4
   
E|--------------------------------|--------------------||
B|--------------------------------|--------------------||
G|--------------------------------|-------------------*||
D|---------10---------------------|-------------------*||
A|-----7-10----12-10-12--10-9-10--|-----7-10-----------||
E|-5-8----------------------------|-5-8-----10--8-7-8--||

Tap to rate this tab
# A B C D E F G H I J K L M N O P Q R S T U V W X Y Z