Rolo Tomassi - Kasia tab

-----------------------------------------------------------------------------
			    Kasia - Rolo Tomassi
-----------------------------------------------------------------------------
Tabbed by: voodoochild13

All the notes are correct (as far as i can tell) if you've found this tab then you'll 
have the song to play along to to get the timings/rhythms correct.

Comments about this tab and other Rolo songs to be tabbed are more than welcome!


Tuning: Drop D

e|----5---------5---------5---------5---------5---------5------------------|
B|------6---------6---------6---------6---------6---------6----------------|
G|--------0---------0---------0---------0---------0---------0--------------|
D|-0-----------------------------------------------------------------------|
A|-----------3-------------------------------------------------------------|
D|---------------------3---------5---------5---------5---------------------|


e|--5---------5----------5--------5--------5--------5--------5---------5----|
B|----6---------6----------6--------6--------6--------6--------6---------6--|
G|------0---------0----------0--------0--------0--------0--------0---------0|
D|0--------3----------2-----------------------------------------------------|
A|------------------------------3--------0----------------------------------|
D|------------------------------------------------0--------0--------0-------|


e|---------------------------------------------------------------------------|(REPEAT)
B|---------------------------------------------------------------------------|
G|--------------------------7---5---5---7--7--7---7---10--10---12---9--------|
D|--0-0-0-0-0-0-0-0-0-0-0---7---5---3---5--5--5---7---10--10---10---7--------|
A|--0-0-0-0-0-0-0-0-0-0-0---5---3---3---5--5--5---5---8---7----10---7--------|
D|--0-0-0-0-0-0-0-0-0-0-0-----------3---5--5--5----------------10---7--------|
   P.M..................

e|-----5--------5-------5----------|
B|-------6--------6-------6--------|
G|---------0--------0-------0------|
D|---0--------0-------0------------|
A|---------------------------------|
D|---------------------------------|
   L.R...........................


e|--------------------------------------------------------------------|
B|--------------------------------------------------------------------|
G|----7--7---7--7----7--7--7----4--4---5--5---3--3--3---3--3--3-------|
D|----7--7---7--7----7--7--7----2--2---3--3---3--3--3---5--5--5-------|
A|----5--5---5--5----5--5--5----2--2---3--3---5--5--5-----------------|
D|------------------------------2--2---3--3---------------------------|

-------------------------------------|
-------------------------------------|
-----------2-3-----3-2-----2-0-------|
---------0-----2-3-------------2-----|
-----0-----------------0-3-------0-3-|
-------5-----------------------------|
  Repeat x4 (Rhythm changes after2)


e|------------------------|
B|------------------------|
G|-------10--7-----5------|
D|-0--0--8---5--0--3------|
A|-0--0--8---5--0--3------|
E|-0--0--8---5--0--3------| etc.
   PM as necessary.


************************************

| L.R   Let Ring
| P.M   Palm Muted

************************************
Tap to rate this tab
 
# A B C D E F G H I J K L M N O P Q R S T U V W X Y Z