Song name
# A B C D E F G H I J K L M N O P Q R S T U V W X Y Z

Rolo Tomassi - Oh Hello Ghost tab

0:00-1:31 Instrumental

1:31

e|---------------------------|
B|---------------------------|
G|---------------------------|
D|---2----------5~-----4~----|
A|----2--7~-----5~-----4~----|
E|-0-----5~--5--3~--3--2~----| x8

2:31

At the end of the 8th repeat let the F# power
chord ring out:

e|---------|
B|---------|
G|---------|
D|(4)~-----|
A|(4)~-----|
E|(2)~-----|

2:50

Timing may vary on this section:

e|----------|
B|----------|
G|------2~--|
D|---2------|
A|----2-----|
E|-0--------| X31

3:27

Fade out:

e|-------|
B|-------|
G|-------|
D|-2-0~--|
A|-------|
E|-------|







| /  slide up
| \  slide down
| h  hammer-on
| p  pull-off
| ~  vibrato
| +  harmonic
| x  Mute note
Tap to rate this tab
 
# A B C D E F G H I J K L M N O P Q R S T U V W X Y Z