Song name
# A B C D E F G H I J K L M N O P Q R S T U V W X Y Z

Rolo Tomassi - Unromance tab

It's just the intro and outro so far

E|--------------------------|------------------------|
B|--------------------------|------------------------|
G|--------------------------|------------------------|
D|---7-5--------7-5---------|-7-5------7-5-----------|
A|-------7---------7--------|----7--------7----------|
E|-5-------8-3-5-----8-3-4-5|-----8-3-5-----8-0-3-4-5|

E|--------------------------|------------------------|
B|--------------------------|------------------------|
G|--------------------------|------------------------|
D|---7-5--------7-5---------|-7-5------7-5-----------|
A|-------7------------------|----7--------7----------|
E|-5-------5--------5-------|-----8-3-5-----8-3-4-5--|

E|----------------------------|----------------0-3---|
B|----------------------------|--------------------3-|
G|----------------------------|----------------------|
D|---7-5--------7-5-----------|-7-5------7-5---------|
A|-------7---------7----------|----7-----------------|
E|-5-------8-3-5-----8-0-3-4-5|-----5--------5-------|

E|-17-15-17-19-17-----------|
B|-----------------14-------| Repeat intro riff
G|--------------------------|
D|--------------------------|
A|--------------------------|
E|--------------------------|

I'm not sure about the mid bit after but I'm still trying to work it out

E|--------------------------|Repeat riff same way
B|--------------------------|before except lower
G|--------------------------|like here
D|---5-3--------5-3---------|
A|-------5---------5--------|
E|-3-------6-1-3-----6-1-2-3|

ending
  "tackled to the ground" use something like delay I don't actually know a lot about 
effects but you can hear that joe uses something
E|--------------------------|
B|-3-5-8-7-10---------------|repeat until end
G|-2-4-7-6-9----------------|
D|-3-5-8-7-10---------------|
A|--------------------------|
E|--------------------------|
Tap to rate this tab
 
# A B C D E F G H I J K L M N O P Q R S T U V W X Y Z