Song name
# A B C D E F G H I J K L M N O P Q R S T U V W X Y Z

Rolo Tomassi - Mount Celestia tab

-------------------------------------------------------------------------------
                             MOUNT CELESTIA - Rolo Tomassi
-------------------------------------------------------------------------------
Tabbed by: phineasphish
E-mail: phineasphish@gmail.com

Tuning: standard

Not actually the solo as such, but the airy build-up and THAT massive outro riff. 
I can't get the first part of the song down, and this is probably sketchy at best, 
but It's better than nothing at all I suppose, and this is such a cool tune that
I was pretty happy to get this much worked out by myself.

The sound you want is mostly clean, with the tiniest bit of distortion, but with
the reverb and delay cranked right up so that it catches the tail end of the buzz
at each note.


Outro riff:
(first comes in on the build-up at 5:03, then on the crescendo at 5:22)

e|---------------------------------------------------------------------------|
B|---------------------------------------------------------------------------|
G|---------------------------------------------------------------------------|
D|--------------------------------------------------/9-7h9p7---/7------------|
A|/7-5h7p5------------------------5---5-5-7-5h7p5-----------h9----9-7-975----|
E|---------7-5-3--0-0-0h3h5-0h5/7---7------------h7----------------------75--|

e|---------------------------------------------------------------------------|
B|---------------------------------------------------------------------------|
G|---------------------------------------------------------------------9-7---|
D|--------------------------------------------------------------------7-9-97-|
A|/7-5h7p5------------------------5---5-5-7-5h7p5---/9-7h9p7--------79-------|
E|---------7-5-3--0-0-0h3h5-0h5/7---7------------h7---------h10-7-10---------|

Then repeat forever as you drift though space for eternity.



Again, apologies that this is all I can work out, but I'd love to see the rest
of the track if anyone can get it down. Also let me know if there's any obvious
errors. Obviously.
Tap to rate this tab
# A B C D E F G H I J K L M N O P Q R S T U V W X Y Z