Song name
# A B C D E F G H I J K L M N O P Q R S T U V W X Y Z

Rome - Das Feuerordal chords

Band/Song: Rome - Das Feuerordal
Album: Masse Mensch Material
Official Website: http://romepage.eu/

Tabbed by: RhoninX - http://profile.ultimate-guitar.com/RhoninX/
Email: lisekpl(a)o2.pl
Date: 04.02.2010


Repeat this riff throughout the whole song.

     ^    ^  v  ^  v  ^    ^  v  ^  v     ^    ^  v  ^  v  ^    ^  v  ^  v   
     |--3-|  |--3--|  |--3-|  |--3--|     |--3-|  |--3--|  |--3-|  |--3--|   
     Q    E  E  E  E  Q    E  E  E  E     Q    E  E  E  E  Q    E  E  E  E   
E||------------------------------------|--0----------------0----------------|
B||--0----------------0----------------|--1----1--1--1--1--1----1--1--1--1--|
G||--0----0--0--0--0--0----0--0--0--0--|--0----0--0--0--0--0----0--0--0--0--|
D||--2----2--2--2--2--2----2--2--2--2--|--2----2--2--2--2--2----2--2--2--2--|
A||--2----2--2--2--2--2----2--2--2--2--|--3----3--3--3--3--3----3--3--3--3--|
E||--0----0--0--0--0--0----0--0--0--0--|--0----------------0----------------|


  ^    ^  v  ^  v  ^    ^  v  ^  v     ^    ^  v  ^  v  ^    ^    ^      
  |--3-|  |--3--|  |--3-|  |--3--|     |--3-|  |--3--|  |----3----|      
  Q    E  E  E  E  Q    E  E  E  E     Q    E  E  E  E  Q    Q    Q      
--0----------------0----------------|--0-------------------------------||
--1----1--1--1--1--1----1--1--1--1--|--1----1--1--1--1--1----1----0----||
--2----2--2--2--2--2----2--2--2--2--|--2----2--2--2--2--2----2----0----||
--2----2--2--2--2--2----2--2--2--2--|--2----2--2--2--2--2----2----2----||
--0----0--0--0--0--0----0--0--0--0--|--0----0--0--0--0--0----0----0----||
------------------------------------|----------------------------------||




Duration Legend
---------------
Q - quarter
E - 8th
|-n-|  - n-tuplets

Tablature Legend
----------------
^ - brush up
v - brush down
Tap to rate this tab
# A B C D E F G H I J K L M N O P Q R S T U V W X Y Z