Song name
# A B C D E F G H I J K L M N O P Q R S T U V W X Y Z

Rome - To Die Among Strangers tab

Band/Song: Rome - To Die Among Strangers
Album: Flowers From Exile
Official Website: http://romepage.eu/

Tabbed by: RhoninX - http://profile.ultimate-guitar.com/RhoninX/
Email: lisekpl(a)o2.pl
Date: 17.02.2010


Verse

     ^    ^  v  ^  v  ^    ^  v  ^  v     ^    ^  v  ^  v  ^    ^    ^     
     |--3-|  |--3--|  |--3-|  |--3--|     |--3-|  |--3--|  |----3----|     
     Q    E  E  E  E  Q    E  E  E  E     Q    E  E  E  E  Q    Q    Q     
E||--3----3--3--3--3--3----3--3--3--3--|--3----3--3--3--3-----------------|
B||--3----3--3--3--3--3----3--3--3--3--|--3----3--3--3--3--3----3---------|
G||--3----3--3--3--3--3----3--3--3--3--|--3----3--3--3--3--3----3----0----|
D||--5----5--5--5--5--5----5--5--5--5--|--5----5--5--5--5--5----5----0----|
A||--5----5--5--5--5--5----5--5--5--5--|--5----5--5--5--5--5----5----0----|
E||--3----3--3--3--3--3----3--3--3--3--|--3----3--3--3--3--3----3---------|


  ^    ^  v  ^  v  ^    ^  v  ^  v     ^    ^  v  ^  v  ^    ^    ^     
  |--3-|  |--3--|  |--3-|  |--3--|     |--3-|  |--3--|  |----3----|     
  Q    E  E  E  E  Q    E  E  E  E     Q    E  E  E  E  Q    Q    Q     
--5----5--5--5--5--5----5--5--5--5--|--5----5--5--5--5--5----5---------|
--8----8--8--8--8--8----8--8--8--8--|--8----8--8--8--8--8----8---------|
--7----7--7--7--7--7----7--7--7--7--|--7----7--7--7--7--7----7----0----|
--7----7--7--7--7--7----7--7--7--7--|--7----7--7--7--7--7----7----0----|
--5----5--5--5--5--5----5--5--5--5--|--5----5--5--5--5--5----5----0----|
------------------------------------|----------------------------------|


  ^    ^  v  ^  v  ^    ^  v  ^  v     ^    ^  v  ^  v  ^    ^    ^     
  |--3-|  |--3--|  |--3-|  |--3--|     |--3-|  |--3--|  |----3----|     
  Q    E  E  E  E  Q    E  E  E  E     Q    E  E  E  E  Q    Q    Q     
--1----1--1--1--1--1----1--1--1--1--|--1----1--1--1--1-----------------|
--1----1--1--1--1--1----1--1--1--1--|--1----1--1--1--1--1----1---------|
--2----2--2--2--2--2----2--2--2--2--|--2----2--2--2--2--2----2----0----|
--3----3--3--3--3--3----3--3--3--3--|--3----3--3--3--3--3----3----0----|
--3----3--3--3--3--3----3--3--3--3--|--3----3--3--3--3--3----3----0----|
--1----1--1--1--1--1----1--1--1--1--|--1----1--1--1--1--1----1---------|


  ^    ^  v  ^  v  ^    ^  v  ^  v     ^    ^  v  ^  v  ^    ^    ^     
  |--3-|  |--3--|  |--3-|  |--3--|     |--3-|  |--3--|  |----3----|     
  Q    E  E  E  E  Q    E  E  E  E     Q    E  E  E  E  Q    Q    Q     
--3----3--3--3--3--3----3--3--3--3--|--3----3--3--3--3--3----3---------|
--4----4--4--4--4--4----4--4--4--4--|--4----4--4--4--4--4----4---------|
--5----5--5--5--5--5----5--5--5--5--|--5----5--5--5--5--5----5----0----|
--5----5--5--5--5--5----5--5--5--5--|--5----5--5--5--5--5----5----0----|
--3----3--3--3--3--3----3--3--3--3--|--3----3--3--3--3--3----3----0----|
------------------------------------|----------------------------------|


Chorus

  ^    ^  v  ^  v  ^    ^  v  ^  v     ^    ^  v  ^  v  ^    ^    ^     
  |--3-|  |--3--|  |--3-|  |--3--|     |--3-|  |--3--|  |----3----|     
  Q    E  E  E  E  Q    E  E  E  E     Q    E  E  E  E  Q    Q    Q     
--5----5--5--5--5--5----5--5--5--5--|--5----5--5--5--5--5----5---------|
--8----8--8--8--8--8----8--8--8--8--|--8----8--8--8--8--8----8---------|
--7----7--7--7--7--7----7--7--7--7--|--7----7--7--7--7--7----7----0----|
--7----7--7--7--7--7----7--7--7--7--|--7----7--7--7--7--7----7----0----|
--5----5--5--5--5--5----5--5--5--5--|--5----5--5--5--5--5----5----0----|
------------------------------------|----------------------------------|


  ^    ^  v  ^  v  ^    ^  v  ^  v     ^    ^  v  ^  v  ^    ^    ^      
  |--3-|  |--3--|  |--3-|  |--3--|     |--3-|  |--3--|  |----3----|      
  Q    E  E  E  E  Q    E  E  E  E     Q    E  E  E  E  Q    Q    Q      
--5----5--5--5--5--5----5--5--5--5--|--5----5--5--5--5--5----5---------||
--8----8--8--8--8--8----8--8--8--8--|--8----8--8--8--8--8----8---------||
--7----7--7--7--7--7----7--7--7--7--|--7----7--7--7--7--7----7----0----||
--7----7--7--7--7--7----7--7--7--7--|--7----7--7--7--7--7----7----0----||
--5----5--5--5--5--5----5--5--5--5--|--5----5--5--5--5--5----5----0----||
------------------------------------|----------------------------------||




Duration Legend
---------------
Q - quarter
E - 8th
|-n-|  - n-tuplets


Tablature Legend
----------------
^ - brush up
v - brush down
Tap to rate this tab
 
# A B C D E F G H I J K L M N O P Q R S T U V W X Y Z