Song name
# A B C D E F G H I J K L M N O P Q R S T U V W X Y Z

Rome - Die Nelke tab

Band/Song: Rome - Die Nelke
Album: Masse Mensch Material
Official Website: http://romepage.eu/

Tabbed by: RhoninX - http://profile.ultimate-guitar.com/RhoninX/
Email: lisekpl(a)o2.pl
Date: 04.03.2010


Verse

     ^    ^  v  ^  v  ^    ^  v  ^  v     ^    ^  v  ^  v  ^    ^    ^     
     |--3-|  |--3--|  |--3-|  |--3--|     |--3-|  |--3--|  |----3----|     
     Q    E  E  E  E  Q    E  E  E  E     Q    E  E  E  E  Q    Q    Q     
E||------------------------------------|--0----------------0----0----0----|
B||--0----------------0----------------|--0----0--0--0--0--0----0----0----|
G||--0----0--0--0--0--0----0--0--0--0--|--2----2--2--2--2--2----2----0----|
D||--2----2--2--2--2--2----2--2--2--2--|--2----2--2--2--2--2----2----0----|
A||--2----2--2--2--2--2----2--2--2--2--|--0----0--0--0--0--0----0----0----|
E||--0----0--0--0--0--0----0--0--0--0--|----------------------------------|


  ^    ^  v  ^  v  ^    ^  v  ^  v     ^    ^  v  ^  v  ^    ^    ^     
  |--3-|  |--3--|  |--3-|  |--3--|     |--3-|  |--3--|  |----3----|     
  Q    E  E  E  E  Q    E  E  E  E     Q    E  E  E  E  Q    Q    Q     
------------------------------------|--0----------------0----0----0----|
--0----------------0----------------|--0----0--0--0--0--0----0----0----|
--0----0--0--0--0--0----0--0--0--0--|--2----2--2--2--2--2----2----0----|
--2----2--2--2--2--2----2--2--2--2--|--2----2--2--2--2--2----2----0----|
--2----2--2--2--2--2----2--2--2--2--|--0----0--0--0--0--0----0----0----|
--0----0--0--0--0--0----0--0--0--0--|----------------------------------|


  ^    ^  v  ^  v  ^    ^  v  ^  v     ^    ^  v  ^  v  ^    ^    ^     
  |--3-|  |--3--|  |--3-|  |--3--|     |--3-|  |--3--|  |----3----|     
  Q    E  E  E  E  Q    E  E  E  E     Q    E  E  E  E  Q    Q    Q     
------------------------------------|--0----------------0----0----0----|
--0----------------0----------------|--0----0--0--0--0--0----0----0----|
--0----0--0--0--0--0----0--0--0--0--|--2----2--2--2--2--2----2----0----|
--2----2--2--2--2--2----2--2--2--2--|--2----2--2--2--2--2----2----0----|
--2----2--2--2--2--2----2--2--2--2--|--0----0--0--0--0--0----0----0----|
--0----0--0--0--0--0----0--0--0--0--|----------------------------------|


  ^    ^  v  ^  v  ^    ^  v  ^  v     ^    ^  v  ^  v  ^    ^    ^     
  |--3-|  |--3--|  |--3-|  |--3--|     |--3-|  |--3--|  |----3----|     
  Q    E  E  E  E  Q    E  E  E  E     Q    E  E  E  E  Q    Q    Q     
--0----------------0----------------|--0----------------0----0----0----|
--1----1--1--1--1--1----1--1--1--1--|--1----1--1--1--1--1----1----0----|
--0----0--0--0--0--0----0--0--0--0--|--0----0--0--0--0--0----0----0----|
--2----2--2--2--2--2----2--2--2--2--|--2----2--2--2--2--2----2----0----|
--3----3--3--3--3--3----3--3--3--3--|--3----3--3--3--3--3----3----0----|
------------------------------------|----------------------------------|


Chorus

  ^    ^  v  ^  v  ^    ^  v  ^  v     ^    ^  v  ^  v  ^    ^  v  ^  v   
  |--3-|  |--3--|  |--3-|  |--3--|     |--3-|  |--3--|  |--3-|  |--3--|   
  Q    E  E  E  E  Q    E  E  E  E     Q    E  E  E  E  Q    E  E  E  E   
--3----------------3----------------|--0----------------0----------------|
--3----3--3--3--3--3----3--3--3--3--|--1----1--1--1--1--1----1--1--1--1--|
--0----0--0--0--0--0----0--0--0--0--|--2----2--2--2--2--2----2--2--2--2--|
--0----0--0--0--0--0----0--0--0--0--|--2----2--2--2--2--2----2--2--2--2--|
--2----2--2--2--2--2----2--2--2--2--|--0----0--0--0--0--0----0--0--0--0--|
--3----3--3--3--3--3----3--3--3--3--|------------------------------------|


  ^    ^  v  ^  v  ^    ^  v  ^  v     ^    ^  v  ^  v  ^    ^  v  ^  v    
  |--3-|  |--3--|  |--3-|  |--3--|     |--3-|  |--3--|  |--3-|  |--3--|    
  Q    E  E  E  E  Q    E  E  E  E     Q    E  E  E  E  Q    E  E  E  E    
-------------------0----------------|-------------------0----------------||
--0----------------3----3--3--3--3--|--0----------------3----3--3--3--3--||
--0----0--0--0--0--0----0--0--0--0--|--0----0--0--0--0--0----0--0--0--0--||
--2----2--2--2--2--2----2--2--2--2--|--2----2--2--2--2--2----2--2--2--2--||
--2----2--2--2--2--2----2--2--2--2--|--2----2--2--2--2--2----2--2--2--2--||
--0----0--0--0--0-------------------|--0----0--0--0--0-------------------||




Duration Legend
---------------
Q - quarter
E - 8th
|-n-|  - n-tuplets


Tablature Legend
----------------
^ - brush up
v - brush down
Tap to rate this tab
 
# A B C D E F G H I J K L M N O P Q R S T U V W X Y Z