Song name
# A B C D E F G H I J K L M N O P Q R S T U V W X Y Z

Romeo Santos - Debate De 4 tab

E-----------------------------------------------------------------|
B------------5-5-6-5-6-5------------------------------------------|
G---------5----------------7-7-9-7-9-7-5-5-7-5-7-5----------------|
D------7-------------------------------------------------9--------|
A---7-------------------------------------------------------------|
E-----------------------------------------------------------------|

E------------------------------------------------------|
B---------------5--6P5---------------------------------|
G---------5-7-------------7---7H9P7------7H9-----------|
D---7H9------------------------------------------------|
A------------------------------------------------------|
E------------------------------------------------------|

E------------------------------------------------------|
B---8---6P5------6P5-----------------------------------|
G--------------7---------7P5---7H9P7-----7H9-----------|
D------------------------------------------------------|
A------------------------------------------------------|
E------------------------------------------------------|

E---------------------------11/12-(X4)-----------------|
B----12/13-(X4)----------12/13 (X4)--------------------|
G----13/14-(X4)----------------------------------------|
D------------------------------------------------------|
A------------------------------------------------------|
E------------------------------------------------------|
Tap to rate this tab
# A B C D E F G H I J K L M N O P Q R S T U V W X Y Z