Song name
# A B C D E F G H I J K L M N O P Q R S T U V W X Y Z

Rompeprop - Pelikanelul tab

Rompeprop
Menstrual Stomphulk
Pelikanelul

Copyright (c)  BIZARRE LEPROUS PRODUCTIONS 2002
Version 1.0 - 25.9.2009

Transcribed By: Yaniv Dekel
Email:          lickywebster@yahoo.com



.  - palm mute           /  - slide up to
\  - slide down to       ~  - vibrato
h  - hammer on           b  - Bend
p  - pull off            Suffixes for bend
t  - tap                 f  - full bend    h - half bend
ph - pinched harmonic    q  - quarter bend t - tap bend
*  - see comment         ^  - Hold bend    r release bend
x  - Stuccatto           ~  - vibrato bend
,  - slight palm mute    () - ghost note, sustained note
"  - tremolo note        <> - Trill

Tuning is B standard

Bass Intro x8
|----------|
|----------|
|---5------|
|-3---6-4--|

Riff A x12         ||Riff B x2
|------------------||------------------------------------------|
|------------------||------------------------------------------|
|------------------||------------------------------------------|
|------------------||------------------------------------------|
|-----5-0----------||-3333-666--3333-666--3333-666--3333-3333--|
|-3-0-----6-0-4-0--||-3333-666--3333-666--3333-666--3333-3333--|
  . . . . . . . .     ....      ....      ....      .... ....

Riff A x8

Bass Break x2
|----------------------------------|
|----------------------------------|
|----------------------------------|
|-5-5---5-5-5---5-5-5---5-3-3-2-2--|

Riff C x10
|----------------------|
|----------------------|
|----------------------|
|----------------------|
|-5555-5555-5555-3322--|
|-5555-5555-5555-3322--|

Riff A x8

End x1
|--------|
|--------|
|--------|
|--------|
|-2------|
|-0------|


END
Tap to rate this tab
# A B C D E F G H I J K L M N O P Q R S T U V W X Y Z