Guitaretab - guitar tabs
Song name
# A B C D E F G H I J K L M N O P Q R S T U V W X Y Z

Rompeprop - Zuilzalf tab

Band:  Rompeprop
Album: Menstrual Stomphulk
Song:  Zuilzalf
Transcribed By: The Great Southern Trendkill
Email:          fromadyingfetus@aol.com

Legend:
.  - palm mute           /  - slide up to
\  - slide down to       ~  - vibrato
h  - hammer on           b  - Bend
p  - pull off            Suffixes for bend
t  - tap                 f  - full bend    h - half bend
ph - pinched harmonic    q  - quarter bend t - tap bend
*  - see comment         ^  - Hold bend    r release bend
x  - Stuccatto           ~  - vibrato bend
,  - slight palm mute    () - ghost note, sustained note
"  - tremolo note        <> - Trill

Tuning: G# C# F# B D# G#


 4X's
|-----------------------------|
|-----------------------------|
|-----------------------------|
|-----------------------------|
|-10-11-7-5-5555555555555555--|
|--8--9-5-3-3333333333333333--|
            ..............

|----------------------------------------|
|----------------------------------------|
|----------------------------------------|
|----------------------------------------|
|-10-11-7----10-11-7-5-5555555555555555--|
|--8--9-5-----8--9-5-3-3333333333333333--|
                        ..............
[ Tab from: http://www.guitaretab.com/r/rompeprop/69256.html ]
                      3X's
|--------------------------------------------------|
|--------------------------------------------------|
|--------------------------------------------------|
|--------------------------------------------------|
|-10-11-7----10-11-7--8\7-555555--8\7-5-5-555-555--|
|--8--9-5-----8--9-5--6\5-333333--6\5-3-3-333-333--|
                     _____......_______._._..._...__
                       repeat this just once
 8X's
|------------------|
|------------------|
|------------------|
|------------------|
|-8\7-5-5-555-555--|
|-6\5-3-3-333-333--|
        . ... ...
 2X's
|---------------------------|
|---------------------------|
|---------------------------|
|---------------------------|
|-10-11-7--8\7-5-5-555-555--|
|--8--9-5--6\5-3-3-333-333--|
                . . ... ...
__________________________
           repeat
 4X's
|---------------------------------|
|---------------------------------|
|---------------------------------|
|---------------------------------|
|-10-11-7--8\7--5-55-5-55-55-5-5--|
|--8--9-5--6\5--3-33-3-33-33-3-3--|
                 . .. . .. .. . .
                      3X's
|--------------------------------------------------|
|--------------------------------------------------|
|--------------------------------------------------|
|--------------------------------------------------|
|-10-11-7----10-11-7--8\7-555555--8\7-5-5-555-555--|
|--8--9-5-----8--9-5--6\5-333333--6\5-3-3-333-333--|
                     _____......_______._._..._...__
                       repeat this just once
 4X's
|------------------------------|
|------------------------------|
|------------ph--ph---ph---ph--|
|------------5----5----5----5--|
|-10-11-7----------------------|
|--8--9-5-33---33---33---33----|
          ..   ..   ..   ..

 8X's
|------------------|
|------------------|
|------------------|
|------------------|
|-8\7-5-5-555-555--|
|-6\5-3-3-333-333--|

|---------|
|---------|
|---------|
|---------|
|-10-11-7-|
|--8--9-5-|

|---------------------------------------------|
|---------------------------------------------|
|---------------------------------------------|
|---------------------------------------------|
|-5------------5-5----------5-5----------5-5--|
|-3------------3-3----------3-3----------3-3--|
               .            .            .


http://www.rompeprop.cjb.net/
Related for Zuilzalf tab