Song name
# A B C D E F G H I J K L M N O P Q R S T U V W X Y Z

Rompeprop - Vulcanic Eskimo tab

Band: Rompeprop
Album: Hellcock's Pornflakes
Song: Vulcanic Eskimo
Record Label: Bizarre Leprous Production
Tuning: G# C# F# B D# G#

-----------------|
-----------------|
-----------------|
-----------------|
-----------------|
-4-3-6-3-7-3-6-3-|X Many
 pm.............

0:41
-------------------|
-------------------|
-------------------|
-12----------------|
-10-5----5-5----5--|
----3----3-3----3--|

I aint to sure bout this riff its difficult to make out
-------------|
-------------|
-------------|
-------------|
-5-6-5-6-8-6-|
-3-4-3-4-6-4-|X a few
 Trem pick

-----------------|
-----------------|
-----------------|
-----------------|
-----------------|
-4-3-6-3-7-3-6-3-|X Until end
 pm.............
Tap to rate this tab
# A B C D E F G H I J K L M N O P Q R S T U V W X Y Z