Guitaretab - guitar tabs
Song name
# A B C D E F G H I J K L M N O P Q R S T U V W X Y Z

Rompeprop - Dislocated Purple Stoma tab

Band: Rompeprop 
Album: Menstrual Stomphulk 
Song: Dislocated Purple Stoma 

Copyright (c) Bizarre Leprous Records, 2000 
Code: 
. - palm mute           / - slide up to 
\ - slide down to       x  Staccato 
h - hammer on           p - pull off 
, - slight palm mute    () - ghost note, sustained note 
" - tremolo note        <> - Trill 
L  left channel only   R  right channel only 
* - see comment 

Suffixes for bend 
f - full bend       h - half bend 
q - quarter bend    t - tap bend 
^ - Hold bend       r - release bend 
~ - vibrato bend 

Suffixes for harmonic 
ph - pinched harmonic   n  natural/artificial harmonic 

Tuning G# C# F# B D# G# 


Riff 1 (0:08) 

I, IV 
|-----------------------------------| 
|-----------------------------------| 
|-----------------------------------| 
|-----3/4-----5/6-----3/4-----------| 
|-5-5-1/2-5-5-3/4-5-5-1/2-5-5-5555--| 
|-3-3-----3-3-----3-3-----3-3-3333--| 
  . .     . .     . .       . .... 
II, III 
|-----------------------------------| 
|-----------------------------------| 
|-----------------------------------| 
|-----3/4-----5/6-----3/4-----------| 
|-5-5-1/2-5-5-3/4-5-5-1/2-5-555555--| 
|-3-3-----3-3-----3-3-----3-333333--| 
  . .     . .     . .       ...... 

Riff 2 (0:23) play 4 times 
[ Tab from: http://www.guitaretab.com/r/rompeprop/89076.html ]
I, III 
|-------------------------------------| 
|-------------------------------------| 
|-------------------------------------| 
|------3/4------5/6------3/4----------| 
|-5555-1/2-5555-3/4-5555-1/2-5-5-5-5--| 
|-3333-----3333-----3333-----3-3-3-3--| 
  ....     ....     ....     . . . .    

II, IV 
|-------------------------------------| 
|-------------------------------------| 
|-------------------------------------| 
|------3/4------5/6------3/4----------| 
|-5555-1/2-5555-3/4-5555-1/2-5-5-5-5--| 
|-3333-----3333-----3333-----3-3-3-3--| 
  ....     ....     ....       . . . 

Riff 1 x 1/2 (0:37) 

Riff 3 (0:44) play 6 times 
|----------------------------------------| 
|----------------------------------------| 
|----------------------------------------| 
|-------8-7-------8-7-------8-7-7--------| 
|-8-8-5-6-5-8-8-5-6-5-8-8-5-6-5-5-5-5-5--| 
|-6-6-3-----6-6-3-----6-6-3-------3-3-3--| 
                                  . . . 

Riff 4 (1:07) play 6 times 
|--------------------------------------| 
|--------------------------------------| 
|--------------------------------------| 
|------3/4------5/6------3/4------8\7--| 
|-5555-1/2-5555-3/4-5555-1/2-5555-6\5--| 
|-3333-----3333-----3333-----3333------| 
  ....     ....     ....     .... 

End (1:30) 
|-------------------------------------| 
|-------------------------------------| 
|-------------------------------------| 
|-----3/4-----5/6-----3/4-------------| 
|-5-5-1/2-5-5-3/4-5-5-1/2-5-5-5555-5--| 
|-3-3-----3-3-----3-3-----3-3-3333-3--| 
  . .     . .     . .     . . ....
Related for Dislocated Purple Stoma tab