Song name
# A B C D E F G H I J K L M N O P Q R S T U V W X Y Z

Ron Jarzombek - Snuff tab

### Ron Jarzombek - Snuff ###
### From the Album "Solitary Speaking of Theoretical Confinement ###

### Tuning: C Tuning (C F Bb Eb G C)
### Tabbed by: Johannes Wilske
### Email: j.wilske@web.de



/ - slide up
\ - slide down
^ - bend to
h - hammer on
p - pull off




|--------------------------------------------------------------------------------------|
|-------8h10^12----12h13p12---------16p15----------------------------------------------|
|---7h9--------------------------------------14^15-14-12---------------------------11--|
|----------------------------15-13-----------------------14-12------------------12-----|
|---------------------------------------------------------------14---13-9----13--------|
|-------------------------------------------------------------------------10-----------|



|--------------------------------------------------------------------------------------|
|---13h14p13p11-13-11-13---------------------------------------------------------------|
|------------------------12--------11h13--------------------------------------7--------|
|---------------------------15p12---------10-12--8-10--------------8--8h10h11----------|
|-----------------------------------------------------9\---9h10h12---------------------|
|--------------------------------------------------------------------------------------|



|----------------------------------15-14-12--------------------------------------------|
|-----------------10h13--10h11p10-----------15p12--------------------------------------|
|---10-------11------------------------------------15p14p12---12h14p12-----------------|
|------12/13-----------------------------------------------------------15-12h13--------|
|--------------------------------------------------------------------------------------|
|--------------------------------------------------------------------------------------|



|-------------------------14-------------14-------------14^15--15h18-------------------|
|-------------------15^18----15-13h15p13----15-13h15p13--------------15-14-13-10-------|
|------------9-12----------------------------------------------------------------------|
|---7/8-9h12---------------------------------------------------------------------------|
|--------------------------------------------------------------------------------------|
|--------------------------------------------------------------------------------------|



|------------------------------------------------------------------------|
|---13^14\-11-----------------------------------13p10--------------------|
|-------------13-11--------------10-----10h12---------11p9p8-------------|
|--------------------11p10-10h12-----12-----------------------10p8p7-----|
|------------------------------------------------------------------------|
|------------------------------------------------------------------------|



Chorus (0:30):
|----------------------------------------|
|---9/12--10\5-----/9--9h10p9p7----------|
|--------------6-6/-------------9h11-7~--|
|----------------------------------------|
|----------------------------------------|
|----------------------------------------|



|---------------------------16h17p16----------------------/19~----|
|---9/12--10\5-----/14---14-----------17h19p17--16h17p16----------|
|--------------6-6/-----------------------------------------------|
|-----------------------------------------------------------------|
|-----------------------------------------------------------------|
|-----------------------------------------------------------------|



|-------------------------------------------------------------------13-11h13p11---|
|--------------------13-12~-10-------------------11----11-13^15~------------------|
|---12^14-10~------------------12~--11-11/12\7------12-----------11---------------|
|--------------12h13--------------------------------------------------------------|
|---------------------------------------------------------------------------------|
|---------------------------------------------------------------------------------|


                                                                       sweep
|---10h11-10-------------------------------------------------------------8p7------|
|------------11h13-11--11-10-13------------------------------8h10-------8---------|
|-----------------------------------------------7---7-9-10-8------10--10----------|
|-------------------------------7h8h10--9-7-7-9---9-------------------------------|
|---------------------------------------------------------------------------------|
|---------------------------------------------------------------------------------|



|---------------------15^17--15~----14----10------------------13h15-18-20^22------|
|---13-15-16-15-13-12------------15----11----------11------15---------------------|
|--------------------------------------------11-11--------------------------------|
|-----------------------------------------------------12~-------------------------|
|---------------------------------------------------------------------------------|
|---------------------------------------------------------------------------------|



|---18-20-----18^20--15-13-----------------13--------------------|
|---------19~--------------15-14-13--10-11----11-10h11p10--------|
|---------------------------------------------------------11~----|
|----------------------------------------------------------------|
|----------------------------------------------------------------|
|----------------------------------------------------------------|



Chorus (1:13):
|----------------------------------------|
|---9/12--10\5-----/9--9h10p9p7----------|
|--------------6-6/-------------9h11-7~--|
|----------------------------------------|
|----------------------------------------|
|----------------------------------------|



|---------------------------16h17p16------------------------------|
|---9/12--10\5-----/14---14-----------17h19p17--16h17p16----------|
|--------------6-6/---------------------------------------16~-----|
|-----------------------------------------------------------------|
|-----------------------------------------------------------------|
|-----------------------------------------------------------------|



|----------------------------------------|
|---9/12--10\5-----/9--9h10p9p7----------|
|--------------6-6/-------------9h11-7~--|
|----------------------------------------|
|----------------------------------------|
|----------------------------------------|



|---------------------------16h17p16----------------------19/24---|
|---9/12--10\5-----/14---14-----------17h19p17--16h17p16----------|
|--------------6-6/-----------------------------------------------|
|-----------------------------------------------------------------|
|-----------------------------------------------------------------|
|-----------------------------------------------------------------|



|----------------------------------------------------
|----------------------------------------------------
|----------------------------------------------------
|-------3---------------------4-2-1-----3------------ etc.
|---3-4---1-3-4-3~-1-3-4-0-2--------3-4---1-3-4-3~---
|----------------------------------------------------
Tap to rate this tab
# A B C D E F G H I J K L M N O P Q R S T U V W X Y Z