Song name
# A B C D E F G H I J K L M N O P Q R S T U V W X Y Z

Ron Jarzombek - Ive Got The Runs Again tab

I've Got The Runs Again - Solitarily Speaking Of Theoretical Confinement

Hey guys, juckfush here! This piece was recorded at approximately
160pm, and is in 5/4 timing throughout, as straight sixteenths. I'd
 recommend counting each bar as 'I e & a, 2 e & a, 3 e & a, 4 e & a, 
5 e & a', rather than as quintuplets. This should ensure fluidity, 
though it is too recommend to practice counting as quints, 
also - more exercises that way! Tackle each bar individually, 
and identify the phrases - best of luck!

juckfush



       S  S  S  S  S  S  S  S  S  S  S  S  S  S  S  S  S   S  S  S  
E||------------------------------------16-17-16--------------------|
B||---------------------------------------------19-17-16s-14-------|
G||*--14-13-------------14-13-14-16-18-----------------------16-14-|
D||*--------16-14-13-----------------------------------------------|
A||------------------16--------------------------------------------|
E||----------------------------------------------------------------|


   S  S  S  S  S  S  S  S  S  S  S  S  S  S  S  S  S  S  S  S  
--------------------------------------------24----------------|
-----------------17-19-20-19-20-19----19-20----20-19----19-20-|
-----------------------------------21----------------21-------|
--17-16----16-17----------------------------------------------|
--------19----------------------------------------------------|
--------------------------------------------------------------|


   S  S  S  S  S  S  S  S  S   S  S   S  S  S  S  S   S  S  S   S  
----------------------------------------19-20-19------------------|
-----------18-17-15--------------17s-18----------18s-17-----------|
--17-16-17----------17-16-17s-19------------------------19-17s-16-|
------------------------------------------------------------------|
------------------------------------------------------------------|
------------------------------------------------------------------|


   S  S  S  S  S  S  S  S  S  S  S  S  S  S  S  S  S  S  S  S  
--------------18----------18-20-22-23-22-20-18----------------|
-----------------------------------------------22-20-18-------|
-----17-19-20----20-19-20-------------------------------20-19-|
--20----------------------------------------------------------|
--------------------------------------------------------------|
--------------------------------------------------------------|


   S  S  S  S  S  S  S  S  S  S  S  S  S  S  S  S  S   S  S  S  
---------------------------------------------------------------|
--------------------------------18-----------------------------|
--18-17-------------18-17-18-20----17-18-17--------------------|
--------20-18-17----------------------------20-18-17s-15-------|
-----------------20--------------------------------------18-16-|
---------------------------------------------------------------|


   S  S  S  S  S  S  S  S  S  S  S  S  S  S  S  S  S  S  S  S  
--------------------------------------------16----------------|
--------------------------------------------------------------|
-----------------13-15-16-15-16-15----15-16----16-15----15-16-|
-----------------------------------18----------------18-------|
--14-13----13-14----------------------------------------------|
--------16----------------------------------------------------|


   S  S  S  S  S  S  S  S  S  S  S  S  S  S  S  S  S  S  S  S  
--------------------------------------------------------------|
--16-17-16-------14-16-17-16-14-------------------------------|
-----------14-16----------------16-14-------------------------|
--------------------------------------13-14-13----------14-13-|
-----------------------------------------------16-14-12-------|
--------------------------------------------------------------|


   S  S  S  S  S  S  S  S  S  S  S  S  S  S  S  S  S   S  S  S  
--------------10----------10-12-14-15-14-12--------------------|
--------------------------------------------15-14-12s-10-------|
--------11-12----12-11-12--------------------------------12-11-|
--12-14--------------------------------------------------------|
---------------------------------------------------------------|
---------------------------------------------------------------|


   S S  S  S S  S  S S  S  S  S  S  S  S  S  S  S   S  S  S  
--------------------------------12-13-12-10-----------------|
--------------------------------------------13-12s-10-------|
--10-9------------10-9-10-12-14-----------------------12-10-|
-------12-10-9----------------------------------------------|
---------------12-------------------------------------------|
------------------------------------------------------------|


   S  S  S  S  S  S  S  S  S  S  S  S  S  S  S  S  S   S  S  S  
--------------------------------------------20-----------------|
-----------------13-15-16-15-16-15----15-16----16-15s-13-------|
-----------------------------------17--------------------------|
--13-12----12-13-----------------------------------------13-12-|
--------15-----------------------------------------------------|
---------------------------------------------------------------|


   S  S  S  S  S  S  S  S  S  S  S  S  S  S  S  S  S  S  S  S  
--------------------------------------------------------------|
--------------------------------------------------13-14-------|
--------------------------------------13-12-13-15-------13-12-|
-----------11-10----------------10-11-------------------------|
--11-10-11-------13-11-10-11-13-------------------------------|
--------------------------------------------------------------|


   S  S  S  S  S  S  S  S  S  S  S  S  S  S  S  S  S  S  S  S    
---------------------------------------------------------------||
---------------------------------------------------------------||
--15-16-15-13----15-16-15----------------------------------13-*||
--------------16----------------------------------13-15-16----*||
--------------------------14-13----------13-14-16--------------||
--------------------------------16-14-16-----------------------||
(first repeat)


   S  S  S  S  S  S  S  S  S  S  S  S  S  S  S  S  Q      
--------------------------------------------------------||
--------------------------------------------------------||
--15-16-15-13----15-16-15-------------------------------||
--------------16----------------------------------------||
--------------------------14-13----------13-14-16-14----||
--------------------------------16-14-16----------------||
(second repeat)



Duration Legend
---------------
W - whole
H - half
Q - quarter
E - 8th
S - 16th
T - 32nd
X - 64th
. - note dotted
|-n-|  - n-tuplets


Tablature Legend
----------------
L - tied note
x - dead note
g - grace note
(n) - ghost note
> - accentuded note
NH - natural harmonic
AH - artificial harmonic
TH - tapped harmonic
SH - semi harmonic
PH - pitch harmonic
h - hammer on
p - pull off
b - bend
br - bendRelease
pb - preBend
pbr - preBendRelease
brb - bendReleaseBend
\n/ - tremolo bar dip
\n - tremolo bar dive
-/n - tremolo bar Release up
/n\ - tremolo bar inverted dip
/n - tremolo bar return
-\n - tremolo bar Release down
S - shift slide
s - legato slide
/ -  slide into from below or out of upwards
\ -  slide into from above or out of downwards
~ - vibrato
W - wide vibrato
tr - trill
TP - tremolo picking
T - tapping
S - slap
P - pop
< - fade in
^ - brush up
v - brush down
Tap to rate this tab
# A B C D E F G H I J K L M N O P Q R S T U V W X Y Z