Song name
# A B C D E F G H I J K L M N O P Q R S T U V W X Y Z

Ron Pope - Youre The Reason I Come Home tab

Most tabs of this song only provide you a small portion of the single notes
that Ron uses when he plays this song, I prefer to play it this way. Also, 
I tried my best to make this look as simple as possible because it really
is simple!

----------------------------------------------------------------------------
                YOU'RE THE REASON I COME HOME - Ron Pope
----------------------------------------------------------------------------
Tabbed by: Jada Frederick
E-mail: jaybay6@yahoo.com

Tuning: Standard

{Capo on 4th}

Intro:

e|----------------------0-------------------------------------1--1---0--|
B|----------------------1-------------------------------------1--1---1--|
G|---0------0--0--------2---2-----2--------0---------2--------2--2---0--|
D|----------------------2-------2---0----0---0-----3---3------3--3---2--|
A|-----3-----3---3-2-0--0-----0-------------------------------3--3---3--|
E|----------------------0-------------3-3------1-1-------1----1--1---x--|
                        Am                                    F  F   C

Verse 1

Watching you watching me...

e|--------0------------0---------3-------1--1-|
B|--------1------------1---------3-------1--1-|
G|--------0---0--------2---------0-------2--2-|
D|--------2------------2---------0-------3--3-|
A|---3----3-----3-2-0--0----0----2-------3--3-|
E|--------x------------0------3--3----1--1--1-|   Repeat throughout verse
          C            Am        G       F  F
(I like to add in one more strum of the F chord right before the chorus)


Chorus

You're the reason I come home...

e|-----1------3-------------------------1--|
B|-----1------3------------1--3--1------1--|
G|-----2------0--------0-----------0----2--|
D|-----3------0----------2-----------3--3--|
A|-----3------2---3--3------------------3--|
E|--1--1---3--3-------------------------1--|
       F      G       (C formation)     F


You're the reason I come home, my love...

e|--1------3----------------1--|
B|--1------3----------------1--|
G|--2------0----------------2--|
D|--3------0----------------3--|
A|--3------2---3-2-0--------3--|
E|--1---3--3---------0-3-1--1--|
    F      G                F   



You're the reason that when everything I know falls apart..

e|----3--------------1---|
B|----3--------------1---|
G|----0--------------2---|
D|----0--------------3---|
A|----2---0-2-3------3---|
E|-3--3---------0-1--1---|
      G              F



You're the reason I come home...

e|-----3----------0-----|
B|-----3----------------|
G|-----0------0-----0---|
D|-----0--------2-------|
A|-----2---3-3--------3-|
E|--3--3----------------|
       G


Verse 2

Paper doll silhouettes, fingertips on window glass..

e|--------0------------0---------3-------1--1-|
B|--------1------------1---------3-------1--1-|
G|--------0---0--------2---------0-------2--2-|
D|--------2------------2---------0-------3--3-|
A|---3----3-----3-2-0--0----0----2-------3--3-|
E|--------x------------0------3--3----1--1--1-|   repeat throughout verse   
          C            Am        G       F  F



Chorus


You're the reason I come home...

e|-----1------3-------------------------1--|
B|-----1------3------------1--3--1------1--|
G|-----2------0--------0-----------0----2--|
D|-----3------0----------2-----------3--3--|
A|-----3------2---3--3------------------3--|
E|--1--1---3--3-------------------------1--|
       F      G       (C formation)     F


You're the reason I come home, my love...

e|--1------3----------------1--|
B|--1------3----------------1--|
G|--2------0----------------2--|
D|--3------0----------------3--|
A|--3------2---3-2-0--------3--|
E|--1---3--3---------0-3-1--1--|
    F      G                F   



You're the reason that when everything I know falls apart..

e|----3--------------1---|
B|----3--------------1---|
G|----0--------------2---|
D|----0--------------3---|
A|----2---0-2-3------3---|
E|-3--3---------0-1--1---|
      G              F



You're the reason I come home...

e|-----3------0--0--0|
B|-----3------1--1--1|
G|-----0------0--0--0|
D|-----0------2--2--2|
A|-----2------3--3--3|
E|--3--3------x--x--x|
       G      C  C  C


Bridge

For a long time I remember, saying prayers for something perfect...
e|------1-------3----0----0------1--|
B|------1-------3----1----1------1--|
G|------2-------0----0----2------2--|
D|------3-------0----2----2------3--|
A|------3-------2----3----0------3--|
E|---1--1----3--3----x----0---1--1--|
        F       G    C    Am    F


Saying prayers for someone kind..

e|------3-----0---0---0--|
B|------3-----1---1---1--|
G|------0-----0---0---0--|
D|------0-----2---2---2--|
A|------2-----3---3---3--|
E|---3--3-----x---x---x--|
        G     C   C   C


It's in my head, spinning circle down the avenue instead..

e|-----1----3----0----0------1------3------0--------|
B|-----1----3----1----1------1------3--------1------|
G|-----2----0----0----2------2------0----------0----|
D|-----3----0----2----2------3------0------------3--|
A|-----3----2----3----0------3------2----3----------|
E|--1--1----3----x----0---1--1---3--3---------------|
       F    G    C    Am     F      G              


Chorus

You're the reason I come home...

e|-----1------3-------------------------1--|
B|-----1------3------------1--3--1------1--|
G|-----2------0--------0-----------0----2--|
D|-----3------0----------2-----------3--3--|
A|-----3------2---3--3------------------3--|
E|--1--1---3--3-------------------------1--|
       F      G       (C formation)     F


You're the reason I come home, my love...

e|--1------3----------------1--|
B|--1------3----------------1--|
G|--2------0----------------2--|
D|--3------0----------------3--|
A|--3------2---3-2-0--------3--|
E|--1---3--3---------0-3-1--1--|
    F      G                F   



You're the reason that when everything I know falls apart..

e|----3--------------1---|
B|----3--------------1---|
G|----0--------------2---|
D|----0--------------3---|
A|----2---0-2-3------3---|
E|-3--3---------0-1--1---|
      G              F


You're the reason I come home...

e|----3-------------------------1--|
B|----3------------1--3--1------1--|
G|----0--------0-----------0----2--|
D|----0----------2-----------3--3--|
A|----2---3--3------------------3--|
E|-3--3-------------------------1--|
      G       (C formation)     F


You're the reason I come home...

e|------3-----0---0---|
B|------3-----1---1---|
G|------0-----0---0---|
D|------0-----2---2---|
A|------2-----3---3---|
E|---3--3-----x---x---|
        G     C   C



I really hope this helped(:

Tap to rate this tab
# A B C D E F G H I J K L M N O P Q R S T U V W X Y Z