Song name
# A B C D E F G H I J K L M N O P Q R S T U V W X Y Z

Ron Sexsmith - Maybe This Christmas tab

(Intro) 

e|| |--------------------------------------------------------------------|
B|| |---5---5-5h7---7-7h10-7-10-9----7-5h7-------------------------------|
G|| |-----4-------4------------------------4-----------------------------|
D|| |--------------------------------------------------------------------|
A|| |--------------------------------------------------------------------|
E|| |--------------------------------------------------------------------|


(Verse 1) (Melody TAB) 


e|| |----------------5---5--7----9-7-5-5---9-7-5-5-----------------------|
B|| |---5---5--7---7---7-------------------------------------------------|
G|| |-----4------4-------------------------------------------------------|
D|| |--------------------------------------------------------------------|
A|| |--------------------------------------------------------------------|
E|| |--------------------------------------------------------------------|

e|| |---7-7-5-4-4-2-0-4-------|
B|| |-------------------------|
G|| |-------------------------|
D|| |-------------------------|
A|| |-------------------------|
E|| |-------------------------|

e|| |----------------5---5--7----9-7-5-5---9-7-5-5-----------------------|
B|| |---5---5--7---7---7-------------------------------------------------|
G|| |-----4------4-------------------------------------------------------|
D|| |--------------------------------------------------------------------|
A|| |--------------------------------------------------------------------|
E|| |--------------------------------------------------------------------|

                               |Maybe this Christmas…|
e|| |---7-7-5-4-4-2-0-4------------5-------------------------------------|
B|| |--------------------------------5-4-5-------------------------------|
G|| |--------------------4--6----6---------------------------------------|
D|| |--------------------------------------------------------------------|
A|| |--------------------------------------------------------------------|
E|| |--------------------------------------------------------------------|


Still have to figure out the rest (: 
 
Tap to rate this tab
# A B C D E F G H I J K L M N O P Q R S T U V W X Y Z