Song name
# A B C D E F G H I J K L M N O P Q R S T U V W X Y Z

Ron Sexsmith - In A Flash tab

IN A FLASH - Ron Sexsmith
sorry, this is the first tab i ever made:(
one of the saddest song i kno..

CAPO1
INTRO(PICKING)

-|----------32--0---2-0--6-3--2-0h0----------------------------|-
-|-----3--3-------2--------------------------------------------|-
-|------2------------------------------------------------------|-
-|-----0--0-00-0--0-0-0-------0-0-0----------------------------|-
-|-------------------------------------------------------------|-
-|--------------------- 3-3----------------------------------  |-
on on like this through verse


D                   D7                 A             A6
The end must come for some good reason
G                    A
I've heard it said before
D                   D7                 A             A6
To everything a time and season
G                     A                        
What was this season for? 

A      D       A       D
In a flash, in a flash
G                              A       
There one moment and gone in a flash

(G-DURING CHORUS)
 |-----------------------------|-
-|-----0h2-3-------------------|-
-|-----------------------------|-
-|-----------------------------|-
-|----3- -3--------------------|-





Think of all the strangers you've encountered
In cafes or subway trains
Or lined up at this water fountain
One drink and on your way

In a flash, in a flash
There one moment and gone in a flash

When hopes are rising like a rocket
When cups are overflowing
When hearts were filled like children’s pockets
It's then I'll hear your song

In a flash, in a flash
There one moment and gone in a flash

Our eyes can't help but disbelieve this
Bad news and even though
The end must come for some good reason
Right now I just don't know

In a flash, in a flash
There one moment and gone in a flash

There one moment...
Gone in a flash

FOR ANY SUGGESTIONS
krish2540@yahoo.com
Tap to rate this tab
# A B C D E F G H I J K L M N O P Q R S T U V W X Y Z