Song name
# A B C D E F G H I J K L M N O P Q R S T U V W X Y Z

Ronald Jenkees - Keyboard Guitar tab

havent gotten past this begining part of the song but heres the link to the video on youtube.

http://www.youtube.com/watch?v=smE-uIljiGo


its an amazin song and this is the best i could do

oh ya and this is my first actual tab doing this by ear of course haha
-------------------------------------------------------------------------------
			     Keyboard Guitar - Ronald Jenkees
-------------------------------------------------------------------------------
Tabbed by: Mikey
Email: shorte85875@yahoo.com

Tuning: normal.. you can use a capo on 1 if you want 
Effects: delay/distortion
                                      
e|--1--2--1----------x2--------------------2p1-2p1------2p1-2p1-----------|
B|----------2-2-4----x2---------------------------------------------------|
G|-----------------------3--4-3--4-3--------------------------------------|
D|------------------------------------------------------------------------|
A|------------------------------------------------------------------------|
E|------------------------------------------------------------------------|

e|----2--1----------x2----------------------------------------------------|
B|----------2-2-4---x2--------------------------------2-------------------|
G|----------------------3--4-3--4-3-----------3---------------------------|
D|------------------------------------------------------------------------|
A|------------------------------------------------------------------------|
E|------------------------------------------------------------------------|


im still working on this but it would be nice to have some help 
questions or answers please email!





| /  slide up
| \  slide down
| h  hammer-on
| p  pull-off
| ~  vibrato
| +  harmonic
| x  Mute note
===============================================================================

if you havent heard of this guy heres his official myspace page

http://www.myspace.com/ronaldjenkeesmusic
Tap to rate this tab
 
# A B C D E F G H I J K L M N O P Q R S T U V W X Y Z