Song name
# A B C D E F G H I J K L M N O P Q R S T U V W X Y Z

Ronan Hardiman - Warriors tab

                                     Lord of the Dance-Ronan Hardiman
                                               Feet of Flames
                                          Transcribed by Hayaser.net
                                        http://www.ronanhardiman.com/

|---------------------------|--------------------------|---------------------------|----------------5-------|
|--3---6--3-5-6--5---3------|--6p5p3--5--6--3----------|--3---6--3-5-6--5---3------|--6p5p3--5--6-----------|
|---------------------------|--------------------------|---------------------------|------------------------|
|---------------------------|--------------------------|---------------------------|------------------------|
|---------------------------|--------------------------|---------------------------|------------------------|
|---------------------------|--------------------------|---------------------------|------------------------|

|--5-----5---5----5---------|-5----------5----6----5---|------6p5p3-5--------------|------------------------|
|-----6----3----6----3------|----6p5p3-----3----3------|--3-----------6--8--10-11--|-13--15--17--15--13--10-|
|---------------------------|--------------------------|---------------------------|------------------------|
|---------------------------|--------------------------|---------------------------|------------------------|
|---------------------------|--------------------------|---------------------------|------------------------|
|---------------------------|--------------------------|---------------------------|------------------------|

|---------------------------|--------------------------|---------------------------|----------------5-------|
|--3---6--3-5-6--5---3------|--6p5p3--5--6--3----------|--3---6--3-5-6--5---3------|--6p5p3--5--6-----------|
|---------------------------|--------------------------|---------------------------|------------------------|
|---------------------------|--------------------------|---------------------------|------------------------|
|---------------------------|--------------------------|---------------------------|------------------------|
|---------------------------|--------------------------|---------------------------|------------------------|


|--5-----5---5----5---------|-5----------5----6----5---|-----10p8p6--8--5--6-5--6--|-8--10--13-12p10--8p10--|
|-----6----3----6----3------|----6p5p3-----3----3------|--10-----------------------|------------------------|
|---------------------------|--------------------------|---------------------------|------------------------|
|---------------------------|--------------------------|---------------------------|------------------------|
|---------------------------|--------------------------|---------------------------|------------------------|
|---------------------------|--------------------------|---------------------------|------------------------|

Tap to rate this tab
# A B C D E F G H I J K L M N O P Q R S T U V W X Y Z