Ronan Keating - If Tomorrow Never Comes tab

Ronan Keating - If tomorrow never comes


Intro:

E------------------3----!
H------------3---1-0----!
G-----0------------0----!
D---0---0--4---2---0----!
A------------------2----!
E-3----------------3----!

E------------------0----------------2-------2--------3-------3-------3---|
H--------------------1---1---1------3-------3----1-----1-0-----0---1---1-|
G------------------2---2---0------2---2---2---2----0-------0-----2-------|
D----------------2--------------0-------0--------------------------------|
A--------------0---------------------------------3-----------------------|
E--------------------------------------------------------3---------------|

Sometimes late at night.......

E------3-----------2--------0--------2--------3-----------------3---3---|
H--0-----0---------3--------1--------3----1-----1-0-----0-----1-----0---|
G----0-----------2---2----2---2----2---2----0---------0-----0-------0---|
D--------------0-----------------0------------------0-----2---------0---|
A-----------------------0-----------------3-------------------------2---|
E--3----------------------------------------------3-----------------3---|

   ..... She's last in.......
Tap to rate this tab
 
# A B C D E F G H I J K L M N O P Q R S T U V W X Y Z