Song name
# A B C D E F G H I J K L M N O P Q R S T U V W X Y Z

Ronan Keating - She Believes In Me tab

She believes in me
By Ronan Keating
Tabbed by: Jm Aguirre

Intro
e|--0----0----0---1---1------1------1------|
B|-----1---3---1-----1----1------3------3--|
G|----0-----0-------2----2-----1---1--1----|
D|-----------------------------------------|
A|--3------------------------3-------------|
E|----------------1------------------------|
    C             F          Fm


Verse I
           While...       I...               And sometimes...        And it’s
e|--0----0-----0---0-----------------1----1-3-1-1-----—------------7-----|
B|-----1----1-----1-3-1-----1-----1--1--1---2-1—1-1---6--8-6---8--8--8---|
G|----0----0-0---0---0-----0-0---1-1---2-2-2-----2-2--7-7--------9--9-9--|
D|-----------------------------3-----3----------3---------------9--------|
A|--3----------3----------3---------------------------5--------7---------|
E|-----------------------------------------------------------------------|
    C                     F                           Dm       Em
    good... 
e|--5---5---------5----8----8--|
B|--5--5-5----6--6--6--6—-6-6--|
G|----5---5-----7----7---5-----|
D|---7---------7--------7------|
A|------------5--------5-------|
E|--5--------------------------|
    Am        Dm

Verse I
while she lays sleeping
i stay out late at night and play my songs
and sometimes all the nights can be so long
and it's good when i finally make it home all alone

Verse II

While she lays...
      e|--0---0-----------------1----1-3-1-1-----—------------7-----|
      B|-----1-3-1-----1-----1--1--1---2-1—1-1---6--8-6---8--8--8---|
      G|----0---0-----0-0---1-1---2-2-2-----2-2--7-7--------9--9-9--|
      D|------------------3-----3----------3---------------9--------|
      A|--3----------3---------------------------5--------7---------|
      E|------------------------------------------------------------|
          C                     F                Dm       Em

e|--5---5---------5----8----8---------8--|
B|--5--5-5----6--6--6--6—-6-6-6-----6-6--|
G|----5---5-----7----7---5-----5---5-----|
D|---7---------7--------7---------7------|
A|------------5--------5---------5-------|
E|--5------------------------------------|
    Am        Dm 

Verse II
while she lays dreaming 
i touch face across that shift up to the sky
and she wakes up to my kiss
and i say it's alright and i hold her tight


Chorus:
        C
and she believes in me
                                Bm
i never know what just what she sees in me
E             Am        Am+M7
I told her someday if she was my gil
                   Am7         Dm
i could change the world with my songs,
    G
but i was wrong

        C
but she has faith in me
                     Bm
and so i go on trying faithfully
 Em                    Am+M7
forever in my heart she will remain
                  Am7        Dm          G
and i hope and pry, i will find a way, find a way

Verse III

e|--0----0-----0---0-----------------1----1-3-1-1-----—------------7-----|
B|-----1----1-----1-3-1-----1-----1--1--1---2-1—1-1---6--8-6---8--8--8---|
G|----0----0-0---0---0-----0-0---1-1---2-2-2-----2-2--7-7--------9--9-9--|
D|-----------------------------3-----3----------3---------------9--------|
A|--3----------3----------3---------------------------5--------7---------|
E|-----------------------------------------------------------------------|
    C                     F                           Dm       Em

e|--5---5---------5----8----8--|
B|--5--5-5----6--6--6--6—-6-6--|
G|----5---5-----7----7---5-----|
D|---7---------7--------7------|
A|------------5--------5-------|
E|--5--------------------------|
    Am        Dm


Verse III
while she lays waiting i ask myself do i hurt so her
what calls me on along this lonely road
why don't i turn around
and head back home where i belong

Verse IV (do verse II’s riff)

while she lays crying for she knows how my
heart is ripped in 2 I'm torn between the
things that i should do she deserves it
all and I'd give it if i could
God, her love is true (Repeat chorus)








Coda:
e|--0----0----0---1---1------1------1------0--|
B|-----1---3---1-----1----1------3------3—-1--|
G|----0-----0-------2----2-----1---1--1----0--|
D|-----------------------------------------2--|
A|--3------------------------3-------------3--|
E|----------------1---------------------------|
    C             F          Fm            C

while she lays sleeping 
while she lays sleeping for me
         


Tap to rate this tab
# A B C D E F G H I J K L M N O P Q R S T U V W X Y Z