Song name
# A B C D E F G H I J K L M N O P Q R S T U V W X Y Z

Ronan Keating - When You Say Nothing At All tab

Hello Guys This is my fist time to post a tab.. hope you like it :)


INTRO:


e|-------------2-3-|---------------2h3-|---------------2-3-|---------------2h3-|
B|-----3-----------|-----3-------3-----|-------3-----------|-----3-------3-----|
G|-------0---2-----|-------0---2-------|---------0---2-----|-------0---2-------|
D|---0-----0-------|---2-----0---------|-----0-----0-------|---2-----0---------|
A|-----------------|-3-----------------|-------------------|-3-----------------|
E|-3---------------|-------------------|--3----------------|-------------------|


VERSE:


e|-----------------------------------------------------------------------|
B|---0-0-0---------------------------------------------------------------|
G|-----------2-0h2-0-----------------------------------------------------|
D|---------0---0-------2--2-2s4-----2--0--0------------------------------|
A|-------------------3----3------5-----5---------------------------------|
E|-3---3-----------------------------------------------------------------|


e|-------------2-3-|---------------2h3-|
B|-----3-----------|-----3-------3-----|
G|-------0---2-----|-------0---2-------|
D|---0-----0-------|---2-----0---------|
A|-----------------|-3-----------------|
E|-3---------------|-------------------|



e|-------------------------------------------------------2--3----------|  
B|---0-0-0----------------------0-------------0--3---------------------|
G|-----------2-0h2-0-----0--------2--0--0---2------0---2---------------|
D|---------0---0-------2---2-2--0--------------------0-----------------|
A|-------------------3---------------0---------------------------------|
E|-3---3----------------------------------3----------------------------|

e|---------------2h3-|
B|-----3-------3-----|
G|-------0---2-------|
D|---2-----0---------|
A|-3-----------------|
E|-------------------|

e|-------------------------------------------------|
B|-------------0-----------------------------------|
G|---0--0-0--2---2---2--2--------------------------|
D|-2---------------0------4--0---------------------|
A|-3------3---------------5------------------------|
E|-------------------------------------------------|

e|----------------------------------0------------0-----------------------|
B|---0-0-0-----------------0------3-----3----3------3--------------------|
G|-----------2-0h2-0---0--------2------2-2--2------2---------------------|
D|---------0---0---------2----0----0-0-----0---0-0-----------------------|
A|-------------------3---------------------------------------------------|
E|-3---3-----------------------------------------------------------------|

CHORUS:

e|--------------------0--------------------------------------|
B|---3-3-3-0-3---3--3----3--1--------------------------------|
G|-------------0-----------------2--0h2----------------------|
D|-----------------------------0-----------------------------|
A|---------------------3-------------------------------------|
E|-----3-----------------------------------------------------|

e|-----------------------------------------------------------
B|-----0-0-0-0---0-1-3----1-0--0-----------------------------
G|---------------------------------2-------------------------
D|-------------0-----------------0---------------------------
A|---------------------3-------------------------------------
E|-----3-----------------------------------------------------

e|-------------------------------------------0----3---3--5------------------|
B|-----0---------0--------------0-0----3--------3----3------3---------------|
G|-0h2---0---2-2---2---0-0--0-2------2---2-----2-2--0------2-2--------------|
D|---------0-0---------------------0-------0-0-----------0------------------|
A|------------------3-------3---------------------3-------------------------|
E|-----3--------------------------------------------------------------------|

e|---------------------------------------------------------------------|
B|---------------------------------------------------------------------|
G|----0-0 0---0------2s4-4-4-4-0--2--0---------------------------------|
D|--2-------2---2--0---------------------------------------------------|
A|--3-----3------------------------------------------------------------|
E|---------------------------------------------------------------------|

e|------------------------------2-3--------------------------------------|
B|--------3-3---1-0-------0----------------------------------------------|
G|------0-----------0---0-----2------------------------------------------|
D|----0-------0-------2-----0--------------------------------------------|
A|----------2-------3----------------------------------------------------|
E|--3--------------------------------------------------------------------|


BACK TO VERSE. THEN ADD THIS.

e|---------------------------------------------------------------------|
B|----0--0--0----------------------------------------------------------|
G|--------------2-0H2-0------------------------------------------------|
D|------------0---0----------------------------------------------------|
A|---------------------------------------------------------------------|
E|--0----0-------------------------------------------------------------|




e|-------------------------------------------------------2--3----------|  
B|------------------------------0-------------0--3---------------------|
G|-----------------------0--------2--0--0---2------0---2---------------|
D|---------------------2---2-2--0--------------------0-----------------|
A|-------------------3---------------0---------------------------------|
E|----------------------------------------3----------------------------|

e|---------------2h3-|
B|-----3-------3-----|
G|-------0---2-------|
D|---2-----0---------|
A|-3-----------------|
E|-------------------|




e|-------------------------------------------------|
B|-------------0-----------------------------------|
G|---0--0-0--2---2---2--2--------------------------|
D|-2---------------0------4--0---------------------|
A|-3------3---------------5------------------------|
E|-------------------------------------------------|

e|----------------------------------0------------0-----------------------|
B|---0-0-0-----------------0------3-----3----3------3--------------------|
G|-----------2-0h2-0---0--------2------2-2--2------2---------------------|
D|---------0---0---------2----0----0-0-----0---0-0-----------------------|
A|-------------------3---------------------------------------------------|
E|-3---3-----------------------------------------------------------------|

BACK TO CHORUS THEN,

SOLO:

e|---7-----------9-7------------------4-----2--4--------4---------------------|
B|-------9-----9-------10--9----7-------5-0------2---2--4---------------------|
G|-----8--8---8-------8-----------8--------------2--2--4----------------------|
D|----------------------------------7------------2-2--------------------------|
A|-----------------0-------0----------4-----2----0----2-----------------------|
E|---0-----7------------------7-----------------------------------------------|

e|---0------------------7--9---9S11-9-----7-----------------------------------|
B|---0-----0-------7-9--------------------------------------------------------|
G|---1---1------9------------0------------------------------------------------|
D|---2-2----------------------------------------------------------------------|
A|---2---------------7-----0--------0-----------------------------------------|
E|---0--------7-------------------------7-------------------------------------|


e|---9--7-----------------7--9--7--9-----------------------------------------|
B|--------10-9-10--9-7--9----------------------------------------------------|
G|---------------------------------------------------------------------------|
D|---------------------------------------------------------------------------|
A|---0-----------------------------------------------------------------------|
E|-----------0-------7-------7-----7-----------------------------------------|

LAST CHORUS, THEN ENDING :)
Tap to rate this tab
# A B C D E F G H I J K L M N O P Q R S T U V W X Y Z