Roni Size - Brown Paper Bag tab

  
Acknowledgements to the 1st version on here by Liam that got me started on this.


INTRO:
e------------------------5--h7p5---7-------7---------------|
b------------------------5--5------7----5/8--------8-------|
g-----------------------------------------------8/9--------|
d----------------------------------------------------------|
a--7/8/7---------------------------------------------------|
e--------5/6/5---------------------------------------------|
     |     | 
[you can alternate between bends and slides]
  

BRIDGE:
e----------------------------------------------|
b----------------------------------------------|
g----------------------------------------------| 
d------------------------------------- --------|
a-----------------------------4------7/8/7-----|
e--3---3---2-------------3---------------------| 


MAIN/BASS RIFF:

There is a a subtle variation here.
e----------------------------------------------------------------------|
b----------------------------------------------------------------------|
g----------------------------------------------------------------------| 
d----------2/3/2-----------------------------------2/3/2---------------|
a------------------4p1------------------------------------4p1----------|
e----3---3------------3---1---1-------------3(3)(3)----------3---1-----|
                                            (mute &double hit)    (sustain)        
Tap to rate this tab
 
# A B C D E F G H I J K L M N O P Q R S T U V W X Y Z