Song name
# A B C D E F G H I J K L M N O P Q R S T U V W X Y Z

Roni Size - Brown Paper Bag tab

Brown Paper Bag - Roni Size

intro:
G------9-10-9------------|
D-----------------7-8-7--|
A------------------------|
E------------------------|

break:
G----------------------6-0-9-10-9------|
D----------4---------------------------|
A--------------------------------------|
E---2----2----------6------------------|

Main riff:
G---------9-10-9---6----------------|
D------------------------8----------|
A--------------------------7--------|
E----2--2-------------------3--6-6--|
Tap to rate this tab
 
# A B C D E F G H I J K L M N O P Q R S T U V W X Y Z