Song name
# A B C D E F G H I J K L M N O P Q R S T U V W X Y Z

Ronnie Day - My Only Friend tab

My Only Friend (Intro) Standard Tuning

e------------------------------------------------------|
B------------------------------------------------------|
G-------0-12----11----------0-12----11-----------------|
D-----0--------0------------0--------0-----------------|
A-12--------------------12-----------------------------|
E------------------------------------------------------|

e-----------------------------------------------------|
B-----------------------------------------------------|
G-------0-12----11----------0-12----11----------------|
D-----0--------0------------0--------0----------------|
A--9----------------------9---------------------------|
E-----------------------------------------------------|

e------------------------------------------------------|
B------------------------------------------------------|
G------------------------------------------------------|
D-------0-12----11----------0-12----11-----------------|
A-----0--------0------------0--------0-----------------|
E-12--------------------12-----------------------------|

e------------------------------------------------------|
B------------------------------------------------------|
G------------------------------------------------------|
D--------7----9---7------------------------------------|
A-----5------------------------------------------------|
E--7---------------------------------------------------|

e------------------------------------------------------|
B------------------------------------------------------|
G------------------------------------------------------|
D--------5----7---5------------------------------------|
A-----4------------------------------------------------|
E--5---------------------------------------------------|

e------------------------------------------------------|
B------------------------------------------------------|
G------------------------------------------------------|
D--------3---5--3---0----------------------------------|
A-----3------------------------------------------------|
E--1---------------------------------------------------|
Tap to rate this tab
# A B C D E F G H I J K L M N O P Q R S T U V W X Y Z