Song name
# A B C D E F G H I J K L M N O P Q R S T U V W X Y Z

Ronnie Day - Written At A Reststop tab

----------------------------------------------------------------------------
	           Written At a Reststop - Ronnie Day
----------------------------------------------------------------------------
Tabbed by: Jezar
Email: JezarApathetic@yahoo.com

Tuning: Capo 3 [he uses capo 4 but he's in half step down tuning]


[Intro]

e|---------3-------------------7--5-------------5h7p5----3-------------------|
B|---------3-------------------0--7-------------7--------5-------------------|
G|---------0------------------------------0----------------------------------|
D|---------0---------------0----------5--------------------------------------|
A|-----2------2/5-----7------------------------------------------------------|
E|--3------------------------------------------------------------------------|

e|----------3------------------------------3---------------------------------|
B|----------3--0-----------0---------------3--0------------------------------|
G|----------0------2p0h2------2p0----------0-----2p0h2p0---------------------|
D|------2---------------------------------2----------------0-----------------|
A|--3-----------------------------------3------------------------------------|
E|---------------------------------------------------------------------------|

[Verse]

e|---------3-------------------7--5-------------5h7p5----3-------------------|
B|---------3-------------------0--7-------------7--------5-------------------|
G|---------0------------------------------0----------------------------------|
D|---------0---------------0----------5--------------------------------------|
A|-----2------2/5-----7------------------------------------------------------|
E|--3------------------------------------------------------------------------|
    Theres A Thing We Call HeartBreak But I Don't Think

e|----------3------------------------------3---------------------------------|
B|----------3--0----------0----------------3--0------------------------------|
G|----------0------2p0h2------2p0----------0-----2p0h2p0---------------------|
D|------2---------------------------------2----------------0-----------------|
A|--3-----------------------------------3------------------------------------|
E|---------------------------------------------------------------------------|
    My Heart's Ever Let Me Down, My Heart's Never Let Me Down

e|---------3-------------------7--5-------------5h7p5----3-------------------|
B|---------3-------------------0--7-------------7--------5-------------------|
G|---------0------------------------------0----------------------------------|
D|---------0---------------0----------5--------------------------------------|
A|-----2------2/5-----7------------------------------------------------------|
E|--3------------------------------------------------------------------------|
    But I Still Cry 'Cause I Can't Always Have It My Way

e|----------3----------------------------------------------------------------|
B|----------3----------------------------------------------------------------|
G|----------0----------------------------------------------------------------|
D|------2--------------------------------------------------------------------|
A|--3------------------------------------------------------------------------|
E|---------------------------------------------------------------------------|
    And Sometimes Cryin' Can Help You Out

[Prechorus]

Cadd9
Sing it Aloud
D
Sing it Aloud


[Chorus]

    Em   Cadd9        G               D               Dsus
And Scream Shred Your Lungs I Need To Hear You Louder Now
    Em  Cadd9         G          D   Dsus
And Sing As If You'll Never Sing Again
             Em
And When The Morning Comes
         Cadd9
And Your Throat Is Sore
       G                     D
You'll Face The Day Like You Did Before
       Cadd9    D
With A Smile On In The End


[instrumental]
G  Em  D/F#  Cadd9


G                           Em
And I don't know if you can hear me,
          D/F#                     Cadd9
But I can hear the sound of my own echo coming back alone and
                                                                            G            
               Em                D/F#
I don't know why that should scare me to be so lonely
                 Cadd9
But I can't stop cryin' out

[Prechorus]
[Chorus]

[Bridge]

Cadd9              Em        D
I want to hear you sing this song back to me
Cadd9               Em         D
Across thousands of miles from home where I should be
Cadd9             Em                D
And I miss you so badly but I won't waste a simile
Cadd9                            Em
'Cause you already know what you mean to me
                D
If only I could hear you

[Chorus] X 2


[Ending]

e|---------3-------------------7--5-------------5h7p5----3-------------------|
B|---------3-------------------0--7-------------7--------5-------------------|
G|---------0------------------------------0----------------------------------|
D|---------0---------------0----------5--------------------------------------|
A|-----2------2/5-----7------------------------------------------------------|
E|--3------------------------------------------------------------------------|

e|----------3------------------------------3---------------------------------|
B|----------3--0-----------0---------------3--0------------------------------|
G|----------0------2p0h2------2p0----------0-----2p0h2p0---------------------|
D|------2---------------------------------2----------------0-----------------|
A|--3-----------------------------------3------------------------------------|
E|---------------------------------------------------------------------------|

e|--3------------------------------------------------------------------------|
B|--3------------------------------------------------------------------------|
G|--0------------------------------------------------------------------------|
D|--0------------------------------------------------------------------------|
A|--2------------------------------------------------------------------------|
E|--3------------------------------------------------------------------------|


Thats It! Any FeedBack Message Me Through Myspace.
Myspace.com/JezarApathetic


| /  slide up
| \  slide down
| h  hammer-on
| p  pull-off
| ~  vibrato
| +  harmonic
| x  Mute note
============================================================================
Tap to rate this tab
 
# A B C D E F G H I J K L M N O P Q R S T U V W X Y Z