Song name
# A B C D E F G H I J K L M N O P Q R S T U V W X Y Z

Ronnie Laws - Stay Awake tab

-------------------------------------------------------------------------------
			     STAY AWAKE - Lydia
-------------------------------------------------------------------------------
Tabbed by: Damon Tang
Email: xbestxfriendsxmeansx@hotmail.com

Tuning: E Standard

VERSES
Live it up, live it up...

e|---------------------------------------------------------------------------|
B|---------------------------------------------------------------------------|
G|----1----------------------------------------------------------------------|
D|-------2-----2--------2-------2-------2------------------------------------|
A|----------------2--------2-------2-------2---------x4----------------------|
E|-0--------0--------0--------0-------0-------0------------------------------|

...too much for you alone...

e|---------------------------------------------------------------------------|
B|--------------7-----------------------7------------------------------------|
G|-----8-----------8-----------8-----------8---------------------------------|
D|--------9-----------9-----------9-----------9------------------------------|
A|-/6--------6-----------6-----------6---------------------------------------|
E|---------------------------------------------------------------------------|

e|-----------------------------------------------------------------------------------------------|
B|------------5---------------------5------------------------------------------------------------|
G|----6----------6---------6-----------6----------4---------4--------4---------4---------4-------|
D|-------6----------6---------6-----------6----------4---------4--------4---------4---------4----|
A|-4--------4----------4---------4-------------2--------2---------2--------2---------2---------2-|
E|-----------------------------------------------------------------------------------------------|

2ND TIME ONLY - RING OUT ON:
e|---------------------------------------------------------------------------|
B|---------------------------------------------------------------------------|
G|-4-------------------------------------------------------------------------|
D|-4-------------------------------------------------------------------------|
A|-2-------------------------------------------------------------------------|
E|---------------------------------------------------------------------------|


REPEAT ABOVE

CHORUS
The rain...

e|---------------------------------------------------------------------------|
B|-5-------------------------------------------------------------------------|
G|-6---------------------8-------------------------------------8-------------|
D|-6-(one measure/bar)---9-(one measure/bar)-------------------9-------------|
A|-4---------------------6--------------------x2-RING-OUT-ON---6-------------|
E|-----------------------7-------------------------------------7-------------|

ALT END TO CHORUSES 2 & 4
e|-------------------------------0-------------------------------------------|
B|-5--5--5--5--5--5--5--5--5--5--0-------------------------------------------|
G|-6--6--6--6--6--6--6--6--6--6--4-------------------------------------------|
D|-6--6--6--6--6--6--6--6--6--6--4-------------------------------------------|
A|-4--4--0--0--4--4--0--0--0--0--2-----------(ROUGH-STRUMMING)---------------|
E|---------------------------------------------------------------------------|


INTERLUDE (ROUGH)
It's still in the way that I think...

e|-4-----4-----7-----5-------------5-----9-----7-----------------------------|
B|---5-----5-----5-----5-------7-----7-----7-----7---------------------------|
G|-----6-----6-----6-----6--/8---8-----8-----8-----8-------------------------|
D|---------------------------------------------------------------------------|
A|---------------------------------------------------------------------------|
E|---------------------------------------------------------------------------|

e|------0-----0-----0-----0---------0-------0-------0-------0----------------|
B|----2-----2-----2-----4----------------------------------------------------|
G|-\2-----2-----2-----4----------1-------1-------1-------1-------------------|
D|-----------------------------2------2-------2------2-----------------------|
A|---------------------------------------------------------------------------|
E|---------------------------------------------------------------------------|

RHYTHM CHORDS FOR INTERLUDE

e|-0-----0-----0-----0-------------------------------------------------------|
B|-5-----7-----0-----0-------------------------------------------------------|
G|-6-----8-----x-----9-------------------------------------------------------|
D|-6-----9-----7-----9-------------------------------------------------------|
A|-4-----6-----7-----7-------------------------------------------------------|
E|-------------5-----0-------------------------------------------------------|



| /  slide up
| \  slide down
| h  hammer-on
| p  pull-off
| ~  vibrato
| +  harmonic
| x  Mute note
===============================================================================
Tap to rate this tab
# A B C D E F G H I J K L M N O P Q R S T U V W X Y Z