Song name
# A B C D E F G H I J K L M N O P Q R S T U V W X Y Z

Ronnie Montrose - Rock The Nation tab

---------------------------------|
---------------------------------|
--------5--7-------4--4-7-9-(x2)-|
--7--7--5--7-------4--4-7-9------|
--7--7--3--5-------2--2-5-7------|
--5--5---------------------------|

-----------------------------------------------------|
-----------------------------------------------------|
--------5--7--7-----4--4-7---9-9--7--9--7--9-9--7--9-|
--7--7--5--7--7-----4--4-7---9-9--7--9--7--9-9--7--9-|
--7--7--3--5--5-----2--2-5---7-7--5--7--5--7-7--5--7-|
--5--5-----------------------------------------------|

Tap to rate this tab
# A B C D E F G H I J K L M N O P Q R S T U V W X Y Z