Song name
# A B C D E F G H I J K L M N O P Q R S T U V W X Y Z

Ronnie Wood - Sweetness My Weakness tab

-------------------------------------------------------------------------------
		Sweetness My Weakness - Ronnie Wood
-------------------------------------------------------------------------------
Tabbed by:123498765
Email:lymperopov@sch.gr

Tuning:Standard    Album - Feel Like Playing {2010}

e|---3-3---5-5-----------------------------------------------------------------|
B|---3-3---5-5-----------------------------------------------------------------|
G|---4-4---6-6-----------------------------------------------------------------|
D|---5-5---7-7-----------------------------------------------------------------|
A|-----------------------------------------------------------------------------|
E|-----------------------------------------------------------------------------|
Tap to rate this tab
 
# A B C D E F G H I J K L M N O P Q R S T U V W X Y Z